AC/DC

Back in Black

Back in Black by AC/DC Bass Tab and Video Lesson

Level: Intermediate

Genre:Hard Rock

Instrument:4 String Bass

NOTES

How to play Back in Black by AC/DC in Bass Guitar.

Intro and Verse

G|----------------------------------------------------------------| 
D|----------------------------------------------------------------| 
A|-----------------------------------------------5-5-5--------4-4-| 
E|--0-------------------------------------------------------------| 

G|---------------------|----------------------------| 
D|---------------------|----------------------------| 
A|--4------------------|-----------5-5-5--------4-4-| 
E|---------------------|--0-------------------------| 

G|------------------------------| 
D|-----------------------------*| 
A|--4-----2----2-0--2-1-L-2-2--*| 
E|----------4-------------------| 



G|------------------------------------------------------| 
D|------------------------------------------------------| 
A|--2------------------------------2--2--2--2--2--0--2--| 
E|------------------------------------------------------| 

                                           |----3----|      
G|--------------------------|-----------------------------| 
D|--------------------------|-----------------------------| 
A|--2--2--2--2--2--2--0--2--|-----0--0--0--0---------0----| 
E|--------------------------|--0----------------3---------| 

                |----3----|       |----3----|    |----3----|      
G|-----------------------------|--------------------------------| 
D|-----------------------------|--------------------------------| 
A|--0--0--0--0--0---------0----|-------0---------2----0----2----| 
E|-------------------3---------|------------0-------------------| 

                |----3----|                                    
G|-----------------------------|-----------------------------| 
D|-----------------------------|-----------------------------| 
A|--2--2--2--2--2----0----2----|--------------------------3--| 
E|-----------------------------|--3--3-3-3-3-3--L-3-3--3-----| 

    |----3----|                
G|--------------------------| 
D|--------------------------| 
A|--5----5----5----L--------| 
E|--------------------------| 



G|-------------------------------------------------| 
D|-------------------------------------------------| 
A|-------------------------------------------------| 
E|--0----------------------------------------------| 

G|-----------------------------|---------------------------------| 
D|-----------------------------|---------------------------------| 
A|-----------------------------|----5-4---4----------------------| 
E|--0---------7-5-----6-----7--|--0-----7---3--7-5---7-6---7-7---| 

G|---------------------------------|---------------------------------| 
D|---------------------------------|----5-4---4----------------------| 
A|----5-4---4----------------------|--0-----7---3--7-5---7-6---7-7---| 
E|--0-----7---3--7-5---7-6---7-7---|---------------------------------| 

G|---------------------------------|---------------------------------| 
D|----5-4---4----------------------|---------------------------------| 
A|--0-----7---3--7-5---7-6---7-7---|----5-4---4----------------------| 
E|---------------------------------|--0-----7---3--7-5---7-6---7-7---| 

G|---------------------------------| 
D|---------------------------------| 
A|----5-4---4----------------------| 
E|--0-----7---3--7-5---7-6---7-7---| 



Special Slow

G|-------------------------------------------------| 
D|-------------------------------------------------| 
A|-------------------------------------------------| 
E|--0----------------------------------------------| 

G|-----------------------------|---------------------------------| 
D|-----------------------------|---------------------------------| 
A|-----------------------------|----5-4---4----------------------| 
E|--0---------7-5-----6-----7--|--0-----7---3--7-5---7-6---7-7---| 

G|---------------------------------|---------------------------------| 
D|---------------------------------|----5-4---4----------------------| 
A|----5-4---4----------------------|--0-----7---3--7-5---7-6---7-7---| 
E|--0-----7---3--7-5---7-6---7-7---|---------------------------------| 

G|---------------------------------|---------------------------------| 
D|----5-4---4----------------------|---------------------------------| 
A|--0-----7---3--7-5---7-6---7-7---|----5-4---4----------------------| 
E|---------------------------------|--0-----7---3--7-5---7-6---7-7---| 

G|---------------------------------| 
D|---------------------------------| 
A|----5-4---4----------------------| 
E|--0-----7---3--7-5---7-6---7-7---| 



G|------------------------------------------------------| 
D|------------------------------------------------------| 
A|--2------------------------------2--2--2--2--2--0--2--| 
E|------------------------------------------------------| 

                                           |----3----|      
G|--------------------------|-----------------------------| 
D|--------------------------|-----------------------------| 
A|--2--2--2--2--2--2--0--2--|-----0--0--0--0---------0----| 
E|--------------------------|--0----------------3---------| 

                |----3----|       |----3----|    |----3----|      
G|-----------------------------|--------------------------------| 
D|-----------------------------|--------------------------------| 
A|--0--0--0--0--0---------0----|-------0---------2----0----2----| 
E|-------------------3---------|------------0-------------------| 

                |----3----|                                    
G|-----------------------------|-----------------------------| 
D|-----------------------------|-----------------------------| 
A|--2--2--2--2--2----0----2----|--------------------------3--| 
E|-----------------------------|--3--3-3-3-3-3--L-3-3--3-----| 

    |-----3-----|                
G|-------------/7----L--------| 
D|-------/7-------------------| 
A|--5-------------------------| 
E|----------------------------| 



Guitar Solo

G|------------------------------------------------------------| 
D|------------------------------------------------------------| 
A|-------------------------------------------5-5-5--------4-4-| 
E|--0---------------------------------------------------------| 

G|-----------------------------|----------------------------| 
D|-----------------------------|----------------------------| 
A|--4--------------------------|-----------5-5-5--------4-4-| 
E|-----------0-0-0--0-0-0--0-0-|--0-------------------------| 

                |----3----|                                   
G|-----------------------------|----------------------------| 
D|-----------------------------|----------------------------| 
A|--4-----------0---------0----|-----------5-5-5--------4-4-| 
E|-----------0-------0---------|--0-------------------------| 

G|-----------------------------|----------------------------| 
D|-----------------------------|----------------------------| 
A|--4--------------------------|-----------5-5-5--------4-4-| 
E|-----------0-0-0--0-0-0--0-0-|--0-------------------------| 

                |----3----|                                   
G|-----------------------------|----------------------------| 
D|-----------------------------|----------------------------| 
A|--4-----------0---------0----|-----------5-5-5--------4-4-| 
E|-----------0-------0---------|--0-------------------------| 

G|-----------------------------|----------------------------| 
D|-----------------------------|----------------------------| 
A|--4--------------------------|-----------5-5-5--------4-4-| 
E|-----------0-0-0--0-0-0--0-0-|--0-------------------------| 

                |----3----|                                   
G|-----------------------------|----------------------------| 
D|-----------------------------|----------------------------| 
A|--4-----------0---------0----|-----------5-5-5--------4-4-| 
E|-----------0-------0---------|--0-------------------------| 

G|-----------------------------|--------------------------| 
D|-----------------------------|--------------------------| 
A|--4--------------------------|----------5-5-5----L--4-4-| 
E|-----------0-0-0--0-0-0--0-0-|--0----L------------------| 

              |----3----|       
G|---------------------------| 
D|---------------------------| 
A|--L---------0---------0----| 
E|---------0-------0---------| 



G|-------------------------------|-------------------| 
D|-------------------------------|-------------------| 
A|--0----------------------------|--L----------------| 
E|-------------------------------|-------------------| 

G|----------------------------|-----------------------------| 
D|----------------------------|-----------------------------| 
A|-----------5-5-5--------4-4-|--4--------------------------| 
E|--0-------------------------|-----------0-0-0--0-0-0--0-0-| 

                                             |----3----|      
G|----------------------------|-----------------------------| 
D|----------------------------|-----------------------------| 
A|-----------5-5-5--------4-4-|--4-----------0---------0----| 
E|--0-------------------------|-----------0-------0---------| 

G|----------------------------|-----------------------------| 
D|----------------------------|-----------------------------| 
A|-----------5-5-5--------4-4-|--4--------------------------| 
E|--0-------------------------|-----------0-0-0--0-0-0--0-0-| 

                                             |----3----|      
G|----------------------------|-----------------------------| 
D|----------------------------|-----------------------------| 
A|-----------5-5-5--------4-4-|--4-----------0---------0----| 
E|--0-------------------------|-----------0-------0---------| 

G|----------------------------|-------------------------------| 
D|----------------------------|-------------------------12-13-| 
A|-----------5-5-5--------4-4-|--4---------------5-6-7--------| 
E|--0-------------------------|-----------0-0-0---------------| 

                                              |----3----|       
G|-----------------------------|-----------------------------| 
D|--14-------------------------|-----------------------------| 
A|------------5-5-5--------4-4-|--4-----------0---------0----| 
E|-----------------------------|-----------0-------0---------| 



Leave your comments about this lesson