AC/DC

Hells Bells

Hells Bells by AC/DC Bass Tab and Video Lesson

104 BPM 104 BPM

Level: Easy

Genre:Hard Rock

Instrument:4 String Bass

NOTES

Learn how to play Hells Bells by AC/DC in Bass Guitar.

G|-----------------------------------|-------------------|
D|-----------------------------------|-------------------|
A|--------------------------3--2--0--|--L----------------|
E|-----------------------------------|-------------------|


G|---------------------|-------------------|-----------------------|
D|---------------------|-------------------|-----------------------|
A|--L------------L--0--|--L----------------|--L--------L--3--2--0--|
E|---------------------|-------------------|-----------------------|


G|--------------------------|--------------------------|
D|--------------------------|--------------------------|
A|--------------------------|--------------------------|
E|--5--5--5--5--5--5--5--5--|--5--5--5--5--5--5--5--5--|


G|--------------------------|--------------------------|
D|--------------------------|--------------------------|
A|--------------------------|--------------------------|
E|--L--5--5--5--5--5--5--5--|--5--5--5--5--5--8--7--5--|


G|--------------------------|--------------------------|
D|--------------------------|--------------------------|
A|--------------------------|--------------------------|
E|--5--5--5--5--5--5--5--5--|--5--5--5--5--5--5--5--5--|


G|---------------------------|--------------------------|
D|---------------------7--5--|--L--5--------------------|
A|-----------------5-7-------|--------5--5--L-----------|
E|--L--5--5--5--5------------|-----------------8--7--5--|


G|--------------------------|------------------------|--------------------------|
D|--------------------------|------------------------|--------------------------|
A|-----------------------5--|--5--5--5--5------------|-----------------------5--|
E|--5--5--5--5--5--5--5-----|--------------8----7----|--5--5--5--5--5--5--5-----|


G|------------------------||
D|------------------------||
A|--5--5--5--5------------||
E|--------------8----7----||



G|---------------------------------------------|--------------------------|
D|---------------------------------------------|--------------------------|
A|------------------------------------------5--|--5--5--5--5--------------|
E|--5---------------------5--5--5--5--5--5-----|--------------8--8--7--7--|


G|--------------------------|--------------------------|
D|--------------------------|--------------------------|
A|-----------------------5--|--5--5--5--5--------------|
E|--5--5--5--5--5--5--5-----|--------------8--8--7--7--|


G|--------------------------|--------------------------|
D|--------------------------|--------------------------|
A|-----------------------5--|--5--5--5--5--------------|
E|--5--5--5--5--5--5--5-----|--------------8--8--7--7--|


G|--------------------------|------------------------|--------------------------|
D|--------------------------|------------------------|--------------------------|
A|-----------------------5--|--5--5--5--5------------|--5--5--5--5--5--5--5--5--|
E|--5--5--5--5--5--5--5-----|--------------8----7----|--------------------------|


G|------------------------|--------------------------|------------------------|
D|------------------------|--------------------------|------------------------|
A|--L--5--5--5--3---------|--5--5--5--5--5--5--5--5--|--5--5--5--0--3---------|
E|-------------------3----|--------------------------|-------------------3----|


G|--------------------------|------------------------|--------------------------|
D|--------------------------|------------------------|--------------------------|
A|--7--7--7--7--L--7--7--7--|--7--7--7--7--5---------|--------------------------|
E|--------------------------|-------------------5----|--0--0--0--0--0--0--0--0--|


G|---------------------------||
D|---------------------------||
A|---------------------------||
E|--0--0--0--0--3--3--3S--4--||



G|----------------------------------------------|--------------------------|
D|----------------------------------------------|--------------------------|
A|----------------------------------------------|--------------------------|
E|--5----------------------5--5--5--L--5--5--5--|--5--5--5--5--L--5--5--5--|


G|--------------------------|--------------------------|
D|--------------------------|--------------------------|
A|--------------------------|--------------------------|
E|--5--5--5--5--L--5--5--5--|--5--5--5--5--L--8--7--5--|


G|--------------------------|--------------------------|
D|--------------------------|--------------------------|
A|--------------------------|--------------------------|
E|--5--5--5--5--L--5--5--5--|--5--5--5--5--L--5--5--5--|


G|----------------------------|--------------------------|
D|-----------------/7--7--5-5-|--5--5--7-----------------|
A|----------------------------|-----------5--L-----------|
E|--5--5--5--5--5-------------|-----------------8--7--5--|


G|--------------------------|------------------------|--------------------------|
D|--------------------------|------------------------|--------------------------|
A|-----------------------5--|--5--5--5--5------------|-----------------------5--|
E|--5--5--5--5--5--5--5-----|--------------8----7----|--5--5--5--5--5--5--5-----|


G|------------------------||
D|------------------------||
A|--5--5--5--5------------||
E|--------------8----7----||



Guitar Solo

G|--------------------------------------------------|-------------------------|
D|--------------------------------------------------|-------------------------|
A|-----------------------------0-----0--L--0-----3--|--L--3--0--5--L--5--5----|
E|--------------------------------3-----------0-----|-------------------------|


G|--------------------------|-------------------------|--------------------------|
D|--------------------------|-------------------------|--------------------------|
A|--L--0-----0--L--0-----3--|--L--3--0--5--L--5--5----|--L--0-----0--L--0-----3--|
E|--------3-----------0-----|-------------------------|--------3-----------0-----|


G|-------------------------|--------------------------|--------------------------|
D|-------------------------|--------------------------|--------------------------|
A|--L--3--0--5--L--5--5----|--L--0-----0--L--0-----3--|--L--3--0--5--L--5--5--5--|
E|-------------------------|--------3-----------0-----|--------------------------|


G|--------------------------|-------------------------|--------------------------|
D|--------------------------|-------------------------|--------------------------|
A|--5--5--3--5--L--5--3--5--|--L--5--5--0--3--3-------|--5--5--3--5--L--5--3--5--|
E|--------------------------|--------------------3----|--------------------------|


G|-------------------------|--------------------------|-------------------------|
D|-------------------------|--------------------------|-------------------------|
A|--L--5--5--0--3--3-------|--7--7--5--7--L--7--5--7--|--L--7--7--0--5--5-------|
E|--------------------3----|--------------------------|--------------------5----|


G|--------------------------|--------------------------||
D|--------------------------|--------------------------||
A|--------------------------|--------------------------||
E|--0--0--0--0--0--0--0--0--|--0--0--2--2--3--3--3--3--||



G|--------------------------------------------|-----------------------|
D|--------------------------------------------|-----------------------|
A|-----------------------0-----0--L--0-----3--|--L--3--0--5--L--------|
E|--0-----------------------3-----------0-----|-----------------------|


G|--------------------------|-----------------------|--------------------------|
D|--------------------------|-----------------------|--------------------------|
A|--L--0-----0--L--0--0--3--|--L--3--0--5--L--------|--L--0-----0--L--0-----3--|
E|--------3-----------------|-----------------------|--------3-----------0-----|


G|-----------------------|-----------------------|--------------------|
D|-----------------------|-----------------------|--------------------|
A|--L--3-----5--L--------|-----0-----0--L--------|--3--------5--------|
E|-----------------------|--------3--------------|--------------------|


G|-------------------|-----------------------||
D|-------------------|-----------------------||
A|--L----------------|--L--0-----0-----------||
E|-------------------|--------3--------------||



Leave your comments about this lesson