AC/DC

Play Ball

Play Ball by AC/DC Bass Tab and Video Lesson

120 BPM 120 BPM

Level: Beginner

Genre:Hard Rock

Instrument:4 String Bass

NOTES

Learn how to play "Play Ball" by AC/DC in Bass Guitar, including Bass Tabs, Guitar Pro Files and Video Lessons.

G|-----------------------------|--------------------------|
D|-----------------------------|--------------------------|
A|-----------------------------|--------------------------|
E|--3-----3--3--3--3--3--3--3--|--3--3--3--3--3--3--3--3--|


G|--------------------------|--------------------------|
D|--------------------------|--------------------------|
A|--------------------------|--------------------------|
E|--3--3--3--3--3--3--3--3--|--3--3--3--3--3--3--3--3--|


G|--------------------------||---------------------------|
D|--------------------------||*--------------------------|
A|--------------------------||*--------------------------|
E|--3--3--3--3--3--3--3--3--||---3--3--3--3--3--3--3--3--|


G|--------------------------|--------------------------|
D|--------------------------|--------------------------|
A|--------------------------|--------------------------|
E|--3--3--3--3--3--3--3--3--|--3--3--3--3--3--3--3--3--|


  			     4x
G|---------------------------||
D|--------------------------*||
A|--3--3--3--3--3--3--3--3--*||
E|---------------------------||



G|------------------------------|--------------------------|
D|------------------------------|--------------------------|
A|------------------------------|--------------------------|
E|--3------3--3--3--3--3--3--3--|--3--3--3--3--3--3--3--3--|


G|--------------------------|--------------------------|
D|--------------------------|--------------------------|
A|--------------------------|--------------------------|
E|--3--3--3--3--3--3--3--3--|--3--3--3--3--3--3--3--3--|


G|--------------------------|--------------------------|
D|--------------------------|--------------------------|
A|--3--3--3--3--3--3--3--3--|--3--3--3--3--3--3--3--3--|
E|--------------------------|--------------------------|


G|--------------------------|--------------------------|
D|--------------------------|--------------------------|
A|--3--3--3--3--3--3--3--3--|--3--3--3--3--3--3--3--3--|
E|--------------------------|--------------------------|


G|--------------------------|--------------------------|
D|--------------------------|--------------------------|
A|--------------------------|--------------------------|
E|--3--3--3--3--3--3--3--3--|--3--3--3--3--3--3--3--3--|


G|--------------------------|--------------------------||
D|--------------------------|--------------------------||
A|--------------------------|--------------------------||
E|--3--3--3--3--3--3--3--3--|--3--3--3--3--3--3--3--3--||



Guitar Solo

G|-----------------------------------|--------------------------|
D|-----------------------------------|--------------------------|
A|-----------------------------------|--------------------------|
E|--5-----------5--5--5--5--5--5--5--|--5--5--5--5--5--5--5--5--|


G|--------------------------|--------------------------|
D|--------------------------|--------------------------|
A|--------------------------|--------------------------|
E|--5--5--5--5--5--5--5--5--|--5--5--5--5--5--5--5--5--|


G|---------------------------|--------------------------|
D|*--------------------------|--------------------------|
A|*--------------------------|--5--5--5--5--5--5--5--5--|
E|---5--5--5--5--5--5--5--5--|--------------------------|


G|--------------------------|---------------------------||
D|--------------------------|--------------------------*||
A|--------------------------|--5--5--5--5--5--5--5--5--*||
E|--5--5--5--5--5--5--5--5--|---------------------------||



G|-----------------------------|--------------------------|
D|-----------------------------|--------------------------|
A|-----------------------------|--------------------------|
E|--3-----3--3--3--3--3--3--3--|--3--3--3--3--3--3--3--3--|


G|--------------------------|--------------------------|
D|--------------------------|--------------------------|
A|--------------------------|--------------------------|
E|--6--6--6--6--6--6--6--6--|--6--6--6--6--6--6--6--6--|


G|--------------------------|--------------------------|-------------------||
D|--------------------------|--------------------------|-------------------||
A|--6--6--6--6--6--6--6--6--|--3--3--3--3--3--3--3--3--|-------------------||
E|--------------------------|--------------------------|--3----------------||



Leave your comments about this lesson