AC/DC

Rock 'N Roll Train

Rock 'N Roll Train by AC/DC Bass Tab and Video Lesson

Level: Easy

Genre:Hard Rock

Instrument:4 String Bass

NOTES

How to play Rock'N Roll Train by AC/DC in Bass Guitar.

G|--------------------------------------------------------| 
D|--------------------------------------------------------| 
A|------------------------------------5-----5--L--5-------| 
E|--5------------------------------------5----------------| 

G|--------------------------|-----------------------|-------------------------| 
D|-----5--5--5--5--4--4-----|-----------------------|-------------------------| 
A|-----------------------5--|--5--------------------|-----5-----5--L--5-------| 
E|--------------------------|-----5--5--5--L--------|--5-----5----------------| 

G|--------------------------|-----------------------|-------------------------| 
D|-----5--5--5--5-----------|-----------------------|-------------------------| 
A|-----------------5--5--5--|--5--------------------|-----5-----5--L--5-------| 
E|--------------------------|-----5--5--5--L--------|--5-----5----------------| 

G|--------------------------|-----------------------|-------------------| 
D|-----5--5--5--5--4--4-----|-----------------------|-------------------| 
A|-----------------------5--|--5--------------------|-------------------| 
E|--------------------------|-----5--5--5--L--------|--L----------------| 



G|------------------------------------------------------------| 
D|------------------------------------------------------------| 
A|--5------------------------------------5--5--5--5--5--5--5--| 
E|------------------------------------------------------------| 

G|--------------------------|--------------------------| 
D|--------------------------|--------------------------| 
A|--5--5--5--5--5--5--5\----|--0--0--0--0--0--0--0--0--| 
E|--------------------------|--------------------------| 

G|--------------------------|--------------------------| 
D|-----5--5--5--5--0--0--0--|--0-----------------------| 
A|--0-----------------------|-----0--0--0--0--0--0--0--| 
E|--------------------------|--------------------------| 

G|--------------------------|--------------------------| 
D|--------------------------|-----5--5--5--5--0--0--0--| 
A|--0--0--0--0--0--0--0--0--|--0-----------------------| 
E|--------------------------|--------------------------| 

G|--------------------------|--------------------------| 
D|--0-----------------------|--------------------------| 
A|-----0--0--0--0--0--0--0--|--0--0--0--0--0--0--0--0--| 
E|--------------------------|--------------------------| 

G|--------------------------|-----------------------|--------------------------| 
D|--------------------------|-----------------------|--------------------------| 
A|--0-----------------------|-----0--0--0--L--------|-----5-----5--L--5--5--5--| 
E|-----3--3--3--3--2--2--2--|--2--------------------|--5-----5-----------------| 

G|--------------------------|-----------------------|-------------------| 
D|-----5--5--5--5-----------|-----------------------|-------------------| 
A|--5--------------5--5--5--|--5--------------------|-------------------| 
E|--------------------------|-----5--5--5--L--------|--L----------------| 



Chorus 2 and Solo

G|-------------------------------------------------------------------| 
D|-------------------------------------------------------------------| 
A|--5-------------------------------------------5--5--5--5--5--5--5--| 
E|-------------------------------------------------------------------| 

G|--------------------------|--------------------------| 
D|--------------------------|--------------------------| 
A|--5--5--5--5--5--5--5--5--|--0--0--0--0--0--0--0--0--| 
E|--------------------------|--------------------------| 

G|-------------------------------|--------------------------| 
D|-------------------------------|--------------------------| 
A|--0--/10--10--10--10--5--5--5--|--5--0--0--0--0--0--0--0--| 
E|-------------------------------|--------------------------| 

G|--------------------------|-------------------------------| 
D|--------------------------|-------------------------------| 
A|--0--0--0--0--0--0--0--0--|--0--/10--10--10--10--5--5--5--| 
E|--------------------------|-------------------------------| 

G|--------------------------|--------------------------| 
D|--------------------------|--------------------------| 
A|--5--0--0--0--0--0--0--0--|--0--0--0--0--0--0--0--0--| 
E|--------------------------|--------------------------| 

G|--------------------------|-----------------------|-------------------------| 
D|--------------------------|-----------------------|-------------------------| 
A|--0-----------------------|-----0--0--0--L--------|-----5-----5--L--5--L----| 
E|-----3--3--3--3--2--2--2--|--2--------------------|--5-----5----------------| 

G|-------------------------------|-----------------------| 
D|-------------------------------|-----------------------| 
A|--5--/10--10--10--10--5--5--5--|--5--------------------| 
E|-------------------------------|-----5--5--5--L--------| 

G|--------------------------|-----------------------|--------------------------| 
D|--------------------------|-----------------------|--------------------------| 
A|-----------------5--5--5--|--5--0--0--0--L--------|--L-----------5--5--5--5--| 
E|--L--3--3--3--3-----------|-----------------------|-----3--3--3--------------| 

G|-----------------------|------------------------------|-----------------------| 
D|-----------------------|------------------------------|-----------------------| 
A|--5--0--0--0--L--------|--L--/10--10--10--5--5--5--5--|--5--5--0--0--L--------| 
E|-----------------------|------------------------------|-----------------------| 



Final 1st Part

[E]                                            [E]  [E]  [E]  [E]  [E]  [E]  [E]    
G|--------------------------------------------------------------------| 
D|--------------------------------------------------------------------| 
A|--------------------------------------------------------------------| 
E|--5--------------------------------------------5--5--5--5--5--5--5--| 

G|--------------------------|--------------------------| 
D|--------------------------|--------------------------| 
A|--------------------------|--------------------------| 
E|--5--5--5--5--5--5--5--5--|--5--5--5--5--5--5--5--5--| 

G|--------------------------|-------------------------------| 
D|--------------------------|-------------------------------| 
A|--------------------------|-----/10--10--10--10--5--5--5--| 
E|--5--5--5--5--5--5--5--5--|--5----------------------------| 

G|--------------------------|-------------------------------| 
D|--------------------------|-------------------------------| 
A|--5-----------------------|-----/10--10--10--10--5--5--5--| 
E|-----5--5--5--5--5--5--5--|--5----------------------------| 

G|--------------------------|--------------------------| 
D|--------------------------|--------------------------| 
A|--5-----------------------|--------------------------| 
E|-----5--5--5--5--5--5--5--|--5--3--3--3--3--2--2--2--| 

G|--------------------------|--------------------------| 
D|--------------------------|--------------------------| 
A|--------------------------|--------------------------| 
E|--2--5--5--5--5--5--5--5--|--5--3--3--3--3--2--2--2--| 

G|--------------------------|--------------------------| 
D|--------------------------|--------------------------| 
A|--------------------------|-----------------5--5--5--| 
E|--2--5--5--5--5--5--5--5--|--5--3--3--3--3-----------| 

G|--------------------------|--------------------------|-----------------------| 
D|--------------------------|-----5--5--5--5-----------|-----------------------| 
A|--5-----------------------|-----------------5--5--5--|--5--5-----------------| 
E|-----5--5--5--5--5--5--5--|--5-----------------------|--------5--5--L--------| 



Final 2nd Part

G|-------------------------------------------------------------------| 
D|-------------------------------------------------------------------| 
A|-----------------------------------------------5-----5--L--5-------| 
E|--5-----------------------------------------------5----------------| 

G|-------------------|-----------------------|-------------------------| 
D|-------------------|-----------------------|-------------------------| 
A|-------------------|--5--------------------|-----5-----5--L--5--5----| 
E|-------------------|-----5--5--5--L--------|--5-----5----------------| 

G|-------------------------------|--------------------------| 
D|-------------------------------|--------------------------| 
A|--L--/10--10--10--10--5--5--5--|--5-----------------------| 
E|-------------------------------|-----5--5--5--5--5--5--5--| 

G|-------------------------------|--------------------------| 
D|-------------------------------|--------------------------| 
A|-----/10--10--10--10--5--5--5--|--5-----------------------| 
E|--5----------------------------|-----5--5--5--5--5--5--5--| 

G|--------------------------|--------------------------| 
D|--------------------------|--------------------------| 
A|--------------------------|--------------------------| 
E|--5--3--3--3--3--2--2--2--|--2--5--5--5--5--5--5--5--| 

G|-------------------------------|--------------------------| 
D|-------------------------------|--------------------------| 
A|-----/10--10--10--10--9--9--5--|--5-----------------------| 
E|--5----------------------------|-----5--5--5--5--5--5--5--| 

G|--------------------------|--------------------------| 
D|--------------------------|--------------------------| 
A|-----------------5--5--5--|--5-----------------------| 
E|--5--3--3--3--3-----------|-----5--5--5--5--5--5--5--| 

G|--------------------------|--------------------------| 
D|--------------------------|--------------------------| 
A|-----------------5--5--5--|--5-----------------------| 
E|--5--3--3--3--3-----------|-----5--5--5--5--5--5--5--| 

G|--------------------------|-----------------------| 
D|-----5--5--5--5-----------|-----------------------| 
A|-----------------5--5--5--|--5--------------------| 
E|--5-----------------------|-----5--5--5--L--------| 



Leave your comments about this lesson