AC/DC

Rock Or Bust

Rock Or Bust by AC/DC Bass Tab and Video Lesson

98 BPM 98 BPM

Level: Easy

Genre:Hard Rock

Instrument:4 String Bass

NOTES

Let's play the new AC/DC hit "Rock Or Bust" on Bass with Video Lesson, Bass Tabs and Guitar Pro files. Tune your bass 1/2 step down.

F#|-----------------------------|--------------------------|
C#|-----------------------------|--------------------------|
G#|-----------------------------|--------------------------|
D#|--7-----7--7--7--7--7--7--7--|--7--7--7--7--7--7--7--7--|


F#|--------------------------|--------------------------|-------------------------|
C#|--------------------------|--------------------------|-------------------------|
G#|--------------------------|--------------------------|-------------------------|
D#|--7--7--7--7--7--7--7--7--|--7--7--7--7--7--7--7--7--|--7-7-7-7-L\-------------|


F#|--------------------------------|-------------------------|
C#|--------------------------------|-------------------------|
G#|-----5-5-5----------------------|-------------------------|
D#|-------------5-5-5---0-0-0------|--7-7-7-7-L\-------------|


F#|--------------------------------||
C#|--------------------------------||
G#|-----5-5-5---4-4-4--------------||
D#|---------------------0-0-0------||



F#|-----------------------------|--------------------------|
C#|-----------------------------|--------------------------|
G#|-----------------------------|--------------------------|
D#|--7-----7--7--7--7--7--7--7--|--7--7--7--7--7--7--7--7--|


F#|--------------------------|--------------------------------|
C#|--------------------------|--------------------------------|
G#|--------------------------|-----5-5-5----------------------|
D#|--7--7--7--7--7--7--7--7--|--7----------5-5-5---0-0-0---0--|


F#|--------------------------|--------------------------------|
C#|--------------------------|--------------------------------|
G#|--------------------------|-----5-5-5---4-4-4--------------|
D#|--7--7--7--7--7--7--7--7--|--7------------------0-0-0---0--|


F#|--------------------------|--------------------------------||
C#|--------------------------|--------------------------------||
G#|--------------------------|-----5-5-5----------------------||
D#|--7--7--7--7--7--7--7--7--|--7----------5-5-5---0-0-0---0--||



F#|------------------------------|--------------------------|
C#|------------------------------|--------------------------|
G#|------------------------------|--------------------------|
D#|--7------7--7--7--7--7--7--7--|--7--7--7--7--7--7--7--7--|


F#|--------------------------|--------------------------|-------------------------|
C#|--------------------------|--------------------------|-------------------------|
G#|--------------------------|--------------------------|-------------------------|
D#|--7--7--7--7--7--7--7--7--|--7--7--7--7--7--7--7--7--|--7-7-7-7-L\-------------|


F#|--------------------------------|-------------------------|
C#|--------------------------------|-------------------------|
G#|-----5-5-5----------------------|-------------------------|
D#|-------------5-5-5---0-0-0------|--7-7-7-7-L\-------------|


F#|--------------------------------|--------------------------|
C#|--------------------------------|--------------------------|
G#|-----5-5-5---4-4-4--------------|--------------------------|
D#|---------------------0-0-0------|--7--7--7--7--7--7--7--7--|


F#|--------------------------|-------------------------|
C#|--------------------------|-------------------------|
G#|--------------------------|-------------------------|
D#|--7--7--7--7--7--7--7--7--|--7--7--7--7--7--7--0----|


F#|------------------------------||
C#|------------------------------||
G#|-----5-5-5--------------------||
D#|--L----------5-5-5---0-0-0----||



Guitar Solo

F#|----------------------------------|--------------------------|
C#|----------------------------------|--------------------------|
G#|--7-----------7-7-----------------|--7---7-7-----------------|
D#|-------------------7--L--7--7--7--|-----------7--L--7--7--7--|


F#|--------------------------|--------------------------|
C#|--------------------------|--------------------------|
G#|--------------------------|--------------------------|
D#|--0---0-0--7--L--7--7--7--|--0---0-0--7--L--7--7--7--|


F#|--------------------------|--------------------------|
C#|--------------------------|--------------------------|
G#|-----------5--5--5--5--5--|--------------------------|
D#|--3--3--3-----------------|--5--5--5--0--0--0--0--0--|


F#|--------------------------|--------------------------------||
C#|--------------------------|--------------------------------||
G#|--------------------------|-----5-5-5---4-4-4--------------||
D#|--0--0--0--7--7--7--7--7--|---------------------0-0-0---0--||



F#|----------------------------|--------------------------|
C#|----------------------------|--------------------------|
G#|--7-----7-L-----------------|--7---7-L-----------------|
D#|-------------7--L--7--7--7--|-----------7--L--7--7--7--|


F#|--------------------------|--------------------------|
C#|--------------------------|--------------------------|
G#|--------------------------|--------------------------|
D#|--0---0-L--7--L--7--7--7--|--0---0-L--7--L--7--7--7--|


F#|--------------------------|--------------------------|
C#|--------------------------|--------------------------|
G#|-----------5--5--5--5--5--|--------------------------|
D#|--3--3--3-----------------|--5--5--5--0--0--0--0--0--|


F#|--------------------------|-----------------------|-------------------|
C#|--------------------------|-----------------------|-------------------|
G#|--------------------------|--7---7-L--------------|-------------------|
D#|--0---0-L--7--L--7--7--7--|-----------7--L--------|--L----------------|


F#|--------------------||
C#|--------------------||
G#|--------------------||
D#|--L-----------------||



Leave your comments about this lesson