AC/DC

Rock the Blues Away

Rock the Blues Away by AC/DC Bass Tab and Video Lesson

120 BPM 120 BPM

Level: Easy

Genre:Hard Rock

Instrument:4 String Bass

NOTES

Let's play "Rock the Blues Away" by AC/DC on Bass Guitar.

G|---------------------|-----------------------|--------------------------|
D|------------------5--|--L--3--L--2-----------|--------------------------|
A|---------------------|--------------3--------|--3--3--3--3--3--3--3--3--|
E|---------------------|-----------------------|--------------------------|


G|---------------------------|--------------------------|
D|-----------5--L--3--L--2-3-|-----------------------5--|
A|--3--3--3------------------|--3--3--3--3--3--3--3-----|
E|---------------------------|--------------------------|


G|------------------------||
D|--L--3--L--2-3----------||
A|---------------3--------||
E|------------------------||



G|-----------------------------|--------------------------|
D|-----------------------------|-----------3--L--3--L-----|
A|--3-----3--3--3--3--3--3--3--|--3--3--3--------------3--|
E|-----------------------------|--------------------------|


                                                        4x
G|--------------------------|----------------------------||
D|-----------------------5--|--L--3--L--2-3-------------*||
A|--3--3--3--3--3--3--3-----|---------------3--3--3--3--*||
E|--------------------------|----------------------------||



G|---------------------------|-------------------------|
D|---------------------------|-------------------------|
A|------------3--L--3--L-----|----------3--L--3--L-----|
E|--3------L--------------3--|--3----L--------------3--|


G|-------------------------|-------------------------|--------------------------|
D|-------------------------|-------------------------|--------------------------|
A|----------3--L--3--L-----|----------3--L--3--L-----|--------------------------|
E|--3----L--------------3--|--3----L--------------0--|--1--1--1--1--1--1--1--1--|


G|--------------------------|--------------------------|
D|--------------------------|--------------------------|
A|--------------1--1--1--1--|--------------------------|
E|--1--1--1--1--------------|--1--1--1--1--1--1--1--1--|


G|--------------------------|--------------------------|
D|--------------------------|--------------------------|
A|--------------------------|--3--3--3--3--3--3--3--3--|
E|--1--1--1--1--1--1--1--1--|--------------------------|


G|--------------------------|--------------------------|
D|-----------5--5--3--3-----|--------------------------|
A|--3--3--3--------------3--|--3--3--3--3--3--3--3--3--|
E|--------------------------|--------------------------|


G|--------------------------|--------------------------|
D|-----------5--5--3--3-----|--------------------------|
A|--3--3--3--------------3--|--3--3--3--3--3--3--3--3--|
E|--------------------------|--------------------------|


G|--------------------------|--------------------------|-----------------------||
D|-----------5--5--3--3-----|-----------------------5--|--L--3--L--------------||
A|--3--3--3--------------3--|--3--3--3--3--3--3--3-----|-----------3--3--------||
E|--------------------------|--------------------------|-----------------------||



Guitar Solo

G|-----------------------------------|--------------------------|
D|-----------------------------------|--------------------------|
A|--3-----------3--3--3--3--3--3--3--|--3--3--3--3--3--3--3--3--|
E|-----------------------------------|--------------------------|


G|--------------------------|---------------------------||
D|--------------------------|--------------------------*||
A|--3--3--3--3--3--3--3--3--|--3--3--3--3--3--3--3--3--*||
E|--------------------------|---------------------------||


G|--------------------------|--------------------------|
D|--------------------------|--------------------------|
A|--3--3--3--3--3--3--3--3--|--3--3--3--3--3--3--3--3--|
E|--------------------------|--------------------------|


G|--------------------------|--------------------------|
D|--------------------------|--------------------------|
A|--3--3--3--3--3--3--3--3--|--3--3--3--3--3--3--3--3--|
E|--------------------------|--------------------------|


G|--------------------------|--------------------------|
D|--------------------------|--------------------------|
A|--------------------------|--------------------------|
E|--1--1--1--1--1--1--1--1--|--1--1--1--1--1--1--1--1--|


G|--------------------------|--------------------------||
D|--------------------------|--------------------------||
A|--1--1--1--1--1--1--1--1--|--1--1--1--1--1--1--1--1--||
E|--------------------------|--------------------------||



G|-----------------------------|-----------------------||
D|--------------------------5--|--L--3--L--------------||
A|--3-----3--3--3--3--3--3-----|-----------3--3--------||
E|-----------------------------|-----------------------||



Leave your comments about this lesson