AC/DC

TNT

TNT by AC/DC Bass Tab and Video Lesson

128 BPM 128 BPM

Level: Easy

Genre:Hard Rock

Instrument:4 String Bass

NOTES

Learn to play TNT by AC/DC in Bass Guitar.

Intro and Verse 1

G|--------------------------|-------------------|-------------------|
D|--------------------------|-------------------|-------------------|
A|--------------------------|-------------------|-------------------|
E|--0-----------------------|--L----------------|--L----------------|


G|-------------------|-------------------|-------------------|-------------------|
D|-------------------|-------------------|-------------------|-------------------|
A|-------------------|-------------------|-------------------|-------------------|
E|--L----------------|-------------------|-------------------|-------------------|


G|-------------------|-------------------|-------------------|-------------------|
D|-------------------|-------------------|-------------------|-------------------|
A|-------------------|-------------------|-------------------|-------------------|
E|-------------------|-------------------|-------------------|-------------------|


G|-------------------|-------------------|-------------------|-------------------|
D|-------------------|-------------------|-------------------|-------------------|
A|-------------------|-------------------|-------------------|-------------------|
E|-------------------|-------------------|-------------------|-------------------|


G|-------------------|-------------------|-------------------|-------------------|
D|-------------------|-------------------|-------------------|-------------------|
A|-------------------|-------------------|-------------------|-------------------|
E|-------------------|-------------------|-------------------|-------------------|


G|-------------------|-----------------------|-----------------------|
D|-------------------|--------2--------------|--------2--------------|
A|-------------------|-----------------------|-----------------------|
E|-------------------|--0--------------------|--0--------------------|


G|-----------------------|--------------------------|-------------------|
D|--------2--------------|--------2-----------------|-------------------|
A|-----------------------|-----------------------0--|--L----------------|
E|--0--------------------|--0--------------3--L-----|-------------------|


G|-----------------------------|-------||
D|-----------------------------|-------||
A|--L----------------0---------|-------||
E|------------------------3----|-------||



G|------------------------------------|------------------------|
D|------------------------------------|------------------------|
A|------------------------------------|--------------0---------|
E|--0------------0--0--0--0--0--0--0--|--0--0--0--0-------3----|


G|--------------------------|-------------------------||-------------------------|
D|--------------------------|------------------------*||-------------------------|
A|--------------------------|--------------0---------*||----------------------0--|
E|--0--0--0--0--0--0--0--0--|--0--0--0--0-------3-----||--0-------0--3--3--------|


G|-------------------|-------------------|------------------------|
D|-------------------|-------------------|------------------------|
A|--L----------------|--L----------------|---------------------0--|
E|-------------------|-------------------|--0------------3--L-----|


G|------------------------|------------------------|------------------------||
D|------------------------|------------------------|------------------------||
A|--L---------------------|---------------------0--|--L---------------------||
E|---------3--5--3--L--0--|--L------------3--L-----|---------3--5--3--L--0--||



G|----------------------|------------------------|------------------------|
D|----------------------|------------------------|------------------------|
A|----------------------|------------------------|------------------------|
E|-------------------0--|--L------------3--L--5--|--L------3--5--3--L--0--|


G|------------------------|------------------------|------------------------|
D|------------------------|------------------------|------------------------|
A|------------------------|------------------------|------------------------|
E|--L------------3--L--5--|--L------3--5--3--L--0--|--L------------3--L--5--|


G|------------------------|------------------------|------------------------|
D|------------------------|------------------------|------------------------|
A|------------------------|------------------------|------------------------|
E|--L------3--5--3--L--0--|--L------------3--L--5--|--L------3--5--3--L--0--|


G|------------------------|------------------------|------------------------|
D|------------------------|------------------------|------------------------|
A|------------------------|------------------------|------------------------|
E|--L------------3--L--5--|--L------3--5--3--L--0--|--L------------3--L--5--|


G|------------------------|------------------------|------------------------|
D|------------------------|------------------------|------------------------|
A|------------------------|------------------------|------------------------|
E|--L------3--5--3--L--0--|--L------------3--L--5--|--L------3--5--3--L--0--|


G|------------------------|-------------------|-----------------------------||
D|------------------------|-------------------|-----------------------------||
A|------------------------|-------------------|-----------------------------||
E|--L------------3--L--5--|--L----------------|--L----------------5----3----||



Guitar Solo

G|--------------------------------------|--------------------------|
D|-----------------------------5--L--7--|--L--7--7--5--7--5--L-----|
A|--7-----------------7--7--7-----------|-----------------------7--|
E|--------------------------------------|--------------------------|


G|--------------------------|--------------------------|
D|-----------------5--L--7--|--L--7--7--5--7--5--L-----|
A|--L--7--7--7--7-----------|-----------------------7--|
E|--------------------------|--------------------------|


G|--------------------------|--------------------------|
D|-----------------5--L--7--|--L--7--7--5--7--5--L-----|
A|--L--7--7--7--7-----------|-----------------------7--|
E|--------------------------|--------------------------|


G|--------------------------|-------------------|-----------------------------|
D|-----------------5--L--7--|--L----------------|--L--------------------------|
A|--L--7--7--7--7-----------|-------------------|-----------------------------|
E|--------------------------|-------------------|-------------------5----3----|


G||---------------------------|------------------------|
D||*--------------------------|------------------------|
A||*--------------------------|------------------------|
E||---0--0--0--0--0--0--0--0--|--0--0--0--0--5----3----|


G|--------------------------|------------------------|--------------------------|
D|--------------------------|------------------------|--------------------------|
A|--------------------------|------------------------|--------------------------|
E|--0--0--0--0--0--0--0--0--|--0--0--0--0--5----3----|--0--0--0--0--0--0--0--0--|


G|------------------------|--------------------------|-------------------------||
D|------------------------|--------------------------|------------------------*||
A|------------------------|--------------------------|------------------------*||
E|--0--0--0--0--5----3----|--0--0--0--0--0--0--0--0--|--0--0--0--0--5----3-----||


G|-------------------------|-------------------||
D|-------------------------|-------------------||
A|-------------------------|-------------------||
E|--0----------3--3--L--5--|--L----------------||



G|-----------------------------------|--------------------------|
D|-----------------------------------|--------------------------|
A|-----------------------------------|--------------------------|
E|--0-----------0--0--0--0--0--0--0--|--1--1--1--1--1--1--1--1--|


G|--------------------------|--------------------------|--------------------|
D|--------------------------|--------------------------|--------------------|
A|--------------------------|--------------------------|--------------------|
E|--2--2--2--2--2--2--2--2--|--3--3--3--3--3--3--3--3--|--4--------5--------|


G|--------------------|------------------------|--------------------------|
D|--------------------|------------------------|--------------------------|
A|--------------------|------------------------|--------------------------|
E|--6--------7--------|--8----9----10----11----|--12----13----14----15----|


G|--------------------------|------||
D|--------------------------|------||
A|--------------------------|------||
E|--16----17----18----19----|--20--||



Leave your comments about this lesson