AC/DC

You Shook Me All Night Long

You Shook Me All Night Long by AC/DC Bass Tab and Video Lesson

129 BPM 129 BPM

Level: Easy

Genre:Hard Rock

Instrument:4 String Bass

NOTES

How to play You Shook Me All Night Long by AC/DC in Bass Guitar.

G|---------------------------------------------|--------------------------|
D|---------------------------------------------|--------------------------|
A|------------------------------------------5--|--L--5--5--5--5--5--5--5--|
E|---------------------------------------------|--------------------------|


G|--------------------------|------------------------|----------------------|
D|--------------------------|------------------------|----------------------|
A|--5--5--5--5--5--5--5--5--|---------------0--2--3--|--L------2--L------5--|
E|--------------------------|--3----3----L-----------|----------------------|


G|-----------------------|----------------------|------------------------|
D|-----------------------|----------------------|------------------------|
A|--L----5------0--2--3--|--L------2--L---------|---------------0--2--3--|
E|-----------------------|-------------------0--|--3----3----L-----------|


G|----------------------|-----------------------|----------------------||
D|----------------------|-----------------------|----------------------||
A|--L------2--L------5--|--L----5------0--2--3--|--L------2--L---------||
E|----------------------|-----------------------|-------------------0--||



G|------------------------------------------------------|
D|------------------------------------------------------|
A|---------------------------------------------------3--|
E|--3---------------------------------------------------|


G|------------------------|-----------------------|------------------------||
D|------------------------|--------------------5--|--L--5-------5---------*||
A|--L--3-------3-------5--|--L--------------------|--------5---------5----*||
E|--------3---------3-----|-----------------------|------------------------||


G|-----------------------|------------------------|-----------------------|
D|-----------------------|------------------------|--------------------5--|
A|--------------------3--|--L--3-------3-------5--|--L--------------------|
E|--3--------------------|--------3---------3-----|-----------------------|


G|-----------------------|-----------------------|------------------------|
D|--L--5--4----5---------|-----------------------|------------------------|
A|------------------5----|--------------------3--|--L--3-------3-------5--|
E|-----------------------|--3--------------------|--------3---------3-----|


G|--------------------------|--------------------------||
D|--------------------------|--------------------------||
A|--L--5--5--5--5--5--5--5--|--5--5--5--5--5--5--5--5--||
E|--------------------------|--------------------------||



Guitar Solo

G|-----------------------------------------------------------------|
D|-----------------------------------------------------------------|
A|--5-----------------------------------------5--5--5--5--5--5--5--|
E|-----------------------------------------------------------------|


G|-------------------------|-------------------------|------------------------|
D|-------------------------|-------------------------|------------------------|
A|--5--5--5--5--5--5--5----|----------------0--2--3--|----------2----------5--|
E|-------------------------|--3----------------------|------------------------|


G|------------------------|------------------------|------------------------|
D|------------------------|------------------------|------------------------|
A|---------------0--2--3--|----------2-------------|---------------0--2--3--|
E|------------------------|---------------------3--|------------------------|


G|----------------------|--------------------------|--------------------------|
D|----------------------|--------------------------|--------------------------|
A|--L------2------0--5--|--L--5--5--5--5--5--5--3--|--L--3--3--2--2--2--2-----|
E|----------------------|--------------------------|-----------------------0--|


G|------------------------|-----------------------|-----------------------|
D|------------------------|-----------------------|-----------------------|
A|---------------0--2--3--|--L------2--L----5--5--|--L----5------0--2--3--|
E|--3----3----L-----------|-----------------------|-----------------------|


G|----------------------|------------------------|-----------------------|
D|----------------------|------------------------|-----------------------|
A|--L------2--L---------|---------------0--2--3--|--L------2--L-------5--|
E|-------------------0--|--3----3----L-----------|-----------------------|


G|-----------------------|-----------------------|-----||
D|-----------------------|-----------------------|-----||
A|--L----5------0--2--3--|--L------2-------------|-----||
E|-----------------------|--------------0--1--2--|-----||



G|--------------------------------------------|--------------------------|
D|--------------------------------------------|--------------------------|
A|-----------------------------------------5--|--L--5--5--5--5--0--2--3--|
E|--------------------------------------------|--------------------------|


G|------------------------|------------------------|--------------------------|
D|------------------------|------------------------|--------------------------|
A|--L--3--3--2------0--5--|--L----5----5--5--5--5--|--5--5--5--5--5--5--5--5--|
E|------------------------|------------------------|--------------------------|


G|--------------------------||
D|--------------------------||
A|--5--5--5--5--5--5--5--5--||
E|--------------------------||



Leave your comments about this lesson