Aerosmith

What It Takes

What It Takes by Aerosmith Bass Tab and Video Lesson

Level: Easy

Genre:Hard Rock

Instrument:4 String Bass

NOTES

How to play What It Takes by Aerosmith in Bass Guitar.

G|----------------------------------------|---------------------------|
D|----------------------------------------|---------------------------|
A|----------------------------------------|--5------L-5-5--5--L---5---|
E|--3---------------------L-3-3--3--L--3--|---------------------5---5-|

G|------------------------|--------------------------|
D|------------------------|-----------------------5--|
A|---------7--7--5--5--3--|--3------L-3-3--3--L-5----|
E|--0---------------------|--------------------------|



G|-------------------------------------------|----------------------------|
D|----------------------------------------5--|----------------------------|
A|--------------------------------------5----|--5------L---5---5--L---5---|
E|--3-----------------------L-3-3--3--L------|-----------5---5------5---5-|

G|------------------------|-------------------------|--------------------------|
D|------------------------|-------------------------|-----------------------5--|
A|---------7--7--5--5--3--|--3------L-3-3--3--L--5--|---------------------5----|
E|--0---------------------|-------------------------|--3------L-3-3--3--L------|

G|----------------------------|----------------------|-----------------------|
D|----------------------------|----------------------|-----------------------|
A|--5------L---5---5--L---5---|---------7--7----5----|--3--------3--3--L--3--|
E|-----------5---5------5---5-|--0-------------------|-----------------------|

G|---------------------------|--------------------------|-----------------------|
D|---------------------------|--------------------------|-----------------------|
A|--5--5--5--5--5--5--5---5--|--------------------------|-------------7----5----|
E|----------------------5----|--3------L-3-3--3--L--3-2-|--0------L-7-----------|

G|-------------------------|
D|-------------------------|
A|--3------L-3----3--L--3--|
E|-------------------------|



G|------------------------------------------|--------------------------|
D|------------------------------------------|---------------------3----|
A|--1------------------------L-1-1--1--3----|-------------------3----3-|
E|------------------------------------------|--1------L-1-1--1---------|

G|----------------------------|-------------------------|----------------------|
D|-------------------3-L---3--|-------------------3-----|----------------------|
A|--1------L-1-1--/5-----5----|----------------3-----3--|--1------1--0------0--|
E|----------------------------|--1------L-1-1-----------|----------------------|

G|----------------------|-------------------|-------------------|
D|----------------------|-------------------|-------------------|
A|--5------5--3------3--|--2----------------|--L----------------|
E|----------------------|-------------------|-------------------|

G|----------------------|--------------------------|
D|----------------------|------------------3-L--3--|
A|--1------1--4----4----|----------------3---------|
E|----------------------|--1------L-1-1------------|



G|------------------------------------------|---------------------------|
D|---------------------------------------5--|----------------------5h-7-|
A|------------------------------------------|--5------L---5--5--L-------|
E|--3-----------------------L-3-L--3--L-----|-----------5---------------|

G|------------------------|-------------------------|--------------------------|
D|------------------------|-------------------------|-------------------5--/5--|
A|--7------7--7--5--5--3--|--3------L-3-L--3--L--5--|----------------5---------|
E|------------------------|-------------------------|--3------L-3-L------------|

G|---------------------------|----------------------|-------------------------|
D|---------------------------|----------------------|-------------------------|
A|--5------L---5----5-L------|---------7--7----5----|--3------L-3-L-3---L--3--|
E|-----------5----5------5\--|--0-------------------|-------------------------|



G|------------------------------------------|---------------------------|
D|------------------------------------------|------------------3-L--/3--|
A|--1------------------------L-1-1--1--3----|----------------3----------|
E|------------------------------------------|--1------L-1-1-------------|

G|------------------------|-------------------------|----------------------|
D|------------------------|-------------------------|----------------------|
A|--1------L-1-1--1--3----|----------------------3--|--1------1--0------0--|
E|------------------------|--1------L-1-1--1--L-----|----------------------|

G|----------------------|-------------------|---------------16--------|
D|----------------------|-------------------|------------------15\----|
A|--5------5--3------3--|--2----------------|--L--------L-------------|
E|----------------------|-------------------|-------------------------|

G|----------------------|-------------------------|
D|----------------------|-------------------------|
A|--1------1--4----4----|-------------------------|
E|----------------------|--1------L-1-1--1--L--1--|



Guitar Solo

G|-----------------------------------------------|------------------------|
D|-----------------------------------------------|------------------------|
A|--3---------------------------L---3---3--L--3--|--5------5--5--3--3--1--|
E|--------------------------------3---3----------|------------------------|

G|--------------------------|-------------------------|-------------------------|
D|---------------------3----|-------------------------|-------------------------|
A|--1------L-1-1--1--L---1--|-------------------------|--3------L-3-L--3--L--3--|
E|--------------------------|--1------L-1-L--1--L--1--|-------------------------|

G|------------------------|-------------------------|
D|------------------------|-------------------------|
A|--5------5--5--3--3--1--|--1------L-1-L--1--L--1--|
E|------------------------|-------------------------|



G|-------------------------------------------|--------------------------|
D|-------------------------------------------|-----------------5--L-----|
A|--3----------------------L---3---3--L--/5--|---------------5-------5--|
E|---------------------------3---3-----------|--3------L-3-L------------|

G|--------------------------|----------------------|----------------------|
D|-----------------------3--|----------------------|----------------------|
A|--1------L-1-L--1--L-3----|----------------------|--8------8--8----6----|
E|--------------------------|--1--------1------/8--|----------------------|

G|------------------------|-------------------------|--------------------------|
D|------------------------|-------------------------|--------------------------|
A|--4------4--4--4--/6----|-------------------------|--3--3--3--3--3--3--3--3--|
E|------------------------|--4------L-4-L--4--L--4--|--------------------------|



Final - 1st Part

G|------------------------------------------------|------------------------|
D|------------------------------------------------|------------------------|
A|--1--------------------------------1--4----4----|------------/7----/7----|
E|------------------------------------------------|--1------1--------------|

G|----------------------|-------------------------|-----------------------|
D|----------------------|-------------------------|-----------------/3----|
A|--1------1--4------4--|-------------------------|--5------5--5----------|
E|----------------------|--1------L-1-L--1--L--1--|-----------------------|

G|----------------------|----------------------|-----------------------|
D|----------------------|----------------------|-----------------/2----|
A|--1------1--1----3----|----------------------|--5------5--5----------|
E|----------------------|--1------1--1----0----|-----------------------|

G|--3-------------3--3-4-5--|
D|-----------3--------------|
A|--------------------------|
E|--------------------------|



Final - 2nd Part

G|--14-----------------------------------14------14------14------|
D|-----------------------------------15------15------15------15--|
A|---------------------------------------------------------------|
E|---------------------------------------------------------------|

G|--14------14------14------14------|--15------15------15------15-16-17--|
D|------15------15------15------15--|------15------15------15------------|
A|----------------------------------|------------------------------------|
E|----------------------------------|------------------------------------|

G|----------------------|-----------------------|----------------------|
D|----------------------|-----------------/3----|----------------------|
A|----------------------|--5------5--5----------|--1------1--1----3----|
E|--1------1--1----0----|-----------------------|----------------------|

G|----------------------|-----------------------|-------------3---3--L---5--|
D|----------------------|-----------------/3----|-----------3---3------3----|
A|----------------------|--5------5--5----------|--1------L-----------------|
E|--1------1--1----0----|-----------------------|---------------------------|

G|--14----------------|--14----------------|--15----------------|
D|--------------------|--------------------|--------------------|
A|--------------------|--------------------|--------------------|
E|--------------------|--------------------|--------------------|

G|-------------------|
D|-------------------|
A|-------------------|
E|--1----------------|



Leave your comments about this lesson