Amy Winehouse

Rehab

Rehab by Amy Winehouse Bass Tab and Video Lesson

Level: Easy

Genre:R&B

Instrument:4 String Bass

NOTES

How to play Rehab by Amy Winehouse in Bass Guitar.

G|-------||--------------------------9--------|----------------9--------| 
D|-------||*----------------------------9-----|-------------------9--6--| 
A|-------||*--7----------------7-----------6--|--7-------7--------------| 
E|-------||-----------------------------------|-------------------------| 

G|-------------------9-----|-------------------9-----|--------------------------| 
D|--7-------7-----7-----6--|--7-------7-----7--------|-------------------10-----| 
A|-------------------------|----------------------7--|--8-------8-----8------7--| 
E|-------------------------|-------------------------|--------------------------| 

G|--------------------------|-------------------8-----| 
D|-------------------10--5--|--6-------6-----6-----5--| 
A|--8-------8-----8---------|-------------------------| 
E|--------------------------|-------------------------| 

G|-------------------8------| 
D|--6-------6-----6--------*| 
A|----------------------6--*| 
E|--------------------------| 



Verse Slow

G|-------||--------------------------9--------|----------------9--------| 
D|-------||*----------------------------9-----|-------------------9--6--| 
A|-------||*--7----------------7-----------6--|--7-------7--------------| 
E|-------||-----------------------------------|-------------------------| 

G|-------------------9-----|-------------------9-----|--------------------------| 
D|--7-------7-----7-----6--|--7-------7-----7--------|-------------------10-----| 
A|-------------------------|----------------------7--|--8-------8-----8------7--| 
E|-------------------------|-------------------------|--------------------------| 

G|--------------------------|-------------------8-----| 
D|-------------------10--5--|--6-------6-----6-----5--| 
A|--8-------8-----8---------|-------------------------| 
E|--------------------------|-------------------------| 

G|-------------------8------| 
D|--6-------6-----6--------*| 
A|----------------------6--*| 
E|--------------------------| 



Pre Chorus

G|-------------------|---------------------|-------------------| 
D|-------------------|---------------------|-------------------| 
A|-------------------|---------------------|-------------------| 
E|-------------------|--3------------------|--L----------------| 

G|-------------------|-------------------|-------------------|-------------------| 
D|-------------------|-------------------|-------------------|-------------------| 
A|-------------------|-------------------|-------------------|-------------------| 
E|--3----------------|--L----------------|--1----------------|--L----------------| 

G|-------------------|-------------------| 
D|-------------------|-------------------| 
A|-------------------|-------------------| 
E|--1----------------|--L----------------| 



G|-----------------------------|---------------------|---------------------| 
D|-----------------------------|---------------------|---------------------| 
A|--3--------------3--3--------|--3------3--3--------|--3------3--3--------| 
E|-----------------------------|---------------------|---------------------| 

G|---------------------|---------------------|---------------------| 
D|---------------------|---------------------|---------------------| 
A|--3------3--3--------|--3------3--3--------|--3------3--3--------| 
E|---------------------|---------------------|---------------------| 

G|---------------------|---------------------|---------------------| 
D|---------------------|---------------------|---------------------| 
A|--3------3--3--------|--3------3--3--------|---------------------| 
E|---------------------|---------------------|--3------3--3--------| 

G|---------------------|---------------------|---------------------| 
D|---------------------|---------------------|---------------------| 
A|---------------------|---------------------|---------------------| 
E|--3------3--3--------|--1------1--1--------|--1------1--1--------| 

G|---------------------|---------------------|---------------------| 
D|---------------------|---------------------|---------------------| 
A|--3------3--3--------|---------------------|--3------3--3--------| 
E|---------------------|--1------1--1--------|---------------------| 

G|---------------------| 
D|---------------------| 
A|--3------3--3--------| 
E|---------------------| 



Leave your comments about this lesson