Amy Winehouse

You Know I'm No Good

You Know I'm No Good by Amy Winehouse Bass Tab and Video Lesson

Level: Easy

Genre:R&B

Instrument:4 String Bass

NOTES

How to play You Know I'm No Good by Amy Winehouse in Bass Guitar.

G|-------||--------------------------------------------------| 
D|-------||*-------------------------------------------------| 
A|-------||*--5--------------------------------5-------3--4--| 
E|-------||--------------------------------------5--5--------| 

G|--------------------------| 
D|-------------------------*| 
A|--5--------5-------3--4--*| 
E|-------------5--5---------| 



G|-------|--------------------------------------------------| 
D|-------|-----------------------------------------------4--| 
A|-------|--5---------------------------------5-------5-----| 
E|-------|--------------------------------------5--5--------| 

G|-------------------------|-------------------------|--------------------------| 
D|--5--------5-------5--6--|--7--------7-------7-----|--------------------------| 
A|-------------5--5--------|-------------7--7-----7--|--5--------5---5-------3--| 
E|-------------------------|-------------------------|-------------3---4--5-----| 

G|-------------------------|-------------------------|-------------------------| 
D|----------------------4--|--5--------5-------5--6--|--7--------7-------7-----| 
A|--5--------5-------5-----|-------------5--5--------|-------------7--7-----7--| 
E|-------------5--5--------|-------------------------|-------------------------| 

G|-------------------------| 
D|-------------------------| 
A|--5--------5-------5-----| 
E|-------------5--5-----4--| 



Pre Chorus 1

G|-------|----------------------------------------------------------| 
D|-------|----------------------------------------------------------| 
A|-------|-------------------------------------1--1-----1--1-----1--| 
E|-------|--3----------------------------------------3--------3-----| 

G|--------------------------|--------------------------| 
D|-----------------------0--|--2-----2-----2-----2-----| 
A|--1-----1--1-----1--1-----|-----2-----2-----2-----2--| 
E|-----3--------3-----------|--------------------------| 

G|--------------------------|--------------------------| 
D|--2-----2-----2-----2-----|--3-----3-----3-----3-----| 
A|-----2-----2-----2-----2--|-----3-----3-----3-----3--| 
E|--------------------------|--------------------------| 

G|--------------------------|--------------------------| 
D|--3-----3-----3-----3-----|--2-----2-----2-----2-----| 
A|-----3-----3-----3-----3--|-----2-----2-----2-----2--| 
E|--------------------------|--------------------------| 

G|--2-----2-----2-----------| 
D|-----2-----2-----2--2--1--| 
A|--------------------------| 
E|--------------------------| 



G|-------|---------------------------------------------------| 
D|-------|------------------------------------------------6--| 
A|-------|--5----------------------------------5-------5-----| 
E|-------|---------------------------------------5--5--------| 

G|-------------------------|-------------------------|------------------------| 
D|--7--------7-------7-----|-------------------------|-------7----------------| 
A|-------------7--7-----6--|--7--------7-------7-----|------------5--6--7--6--| 
E|-------------------------|-------------7--7-----7--|--5---------------------| 

G|--------------------------|-------------------------|-------------------------| 
D|-----------------------6--|--7--------7-------7-----|-------------------------| 
A|--5--5------5-------5-----|-------------7--7-----6--|--7--------7-------7-----| 
E|--------------5--5--------|-------------------------|-------------7--7-----7--| 

G|--------------------------| 
D|-------7---7--------------| 
A|-------------5---5--6--7--| 
E|--5------------5----------| 



G|-------|--------------------------------------------------| 
D|-------|-----------------------------------------------4--| 
A|-------|--5---------------------------------5-------5-----| 
E|-------|--------------------------------------5--5--------| 

G|-------------------------|--------------------------| 
D|--5--------5-------5--6--|--7--------7---7----7-----| 
A|-------------5--5--------|-------------7---7-----7--| 
E|-------------------------|--------------------------| 

G|-------7--7-7-L-7-7--7-5----|-------------------------| 
D|-------------------------7--|----------------------4--| 
A|--5-------------------------|--5--------5-------5-----| 
E|----------------------------|-------------5--5--------| 

G|--------------------------|-------------------------|-------------------------| 
D|--5--------5---5----5--6--|--7--------7-------7-----|-------------------------| 
A|-------------5---5--------|-------------7--7-----7--|--5--------5-------5-----| 
E|--------------------------|-------------------------|-------------5--5-----4--| 



Pre Chorus 2 and 3

G|-------|----------------------------------------------------------| 
D|-------|----------------------------------------------------------| 
A|-------|-------------------------------------1--1-----1--1-----1--| 
E|-------|--3----------------------------------------3--------3-----| 

G|--------------------------|--------------------------| 
D|-----------------------0--|--2-----2-----2-----2-----| 
A|--1-----1--1-----1--1-----|-----2-----2-----2-----2--| 
E|-----3--------3-----------|--------------------------| 

G|--------------------------|--------------------------| 
D|--2-----2-----2-----2-----|--3-----3-----3-----3-----| 
A|-----2-----2-----2-----2--|-----3-----3-----3-----3--| 
E|--------------------------|--------------------------| 

G|--------------------------|--------------------------|------------2-----2-----| 
D|--3-----3-----3-----3-----|--2-----2-----2-----2-----|---------2-----2-----2--| 
A|-----3-----3-----3-----3--|-----2-----2-----2-----2--|------------------------| 
E|--------------------------|--------------------------|------------------------| 



G|-------|-------|--------------------------------------| 
D|-------|-------|--------------------------------------| 
A|-------|-------|-----------------------------------7--| 
E|-------|-------|--------------------------------------| 

G|-------7--7-7-L-7-7--7-5----|-------------------------| 
D|-------------------------7--|----------------------4--| 
A|--5-------------------------|--5--------5-------5-----| 
E|----------------------------|-------------5--5--------| 

G|--------------------------|-------------------------|-------------------------| 
D|--5--------5---5----5--6--|--7--------7-------7-----|-------------------------| 
A|-------------5---5--------|-------------7--7-----7--|--5--------5-------5-----| 
E|--------------------------|-------------------------|-------------5--5-----4--| 



G|---------------------------------|-------------------|-------------------| 
D|---------------------------------|-------------------|-------------------| 
A|---------------------------------|-------------------|-------------------| 
E|---------------------------------|-------------------|-------------------| 

G|---------------------------|--------------------------| 
D|-------------7---7---------|----------------------5-6-| 
A|-----------7---7---7----7--|--5--------5-------5------| 
E|---------------------5-----|-------------5--5---------| 

G|--------------------------|--------------------------| 
D|--7--7--7---7-------7-----|--------------------------| 
A|--------------7--7-----6--|--7--7--7---7-------7-----| 
E|--------------------------|--------------7--7-----7--| 

G|-----------------------------| 
D|--------5-7--5-7--5-7-L-5-7--| 
A|-----------------------------| 
E|--5--5-----------------------| 



Leave your comments about this lesson