Bee Gees

Staying Alive

Staying Alive by Bee Gees Bass Tab and Video Lesson

Level: Easy

Genre:Rock

Instrument:4 String Bass

NOTES

How to play Staying Alive by Bee Gees in Bass Guitar.

G|--------------------------------------------------------|
D|--1h-------------------------------3---------3----------|
A|--------------------------------------------------------|
E|--------------------------------------------------------|

G|-------------------------1--|-------------------1----|-----3-------------------|
D|--1h-3-------------1--3-----|-----------------3----3-|----------------1--1--1--|
A|-------------1--3-----------|--1---------------------|--1----------------------|
E|----------------------------|------------------------|-------------------------|

G|--------------------------|-------------------------1--|
D|--1h-3---------3----------|--1h-3-------------1--3-----|
A|--------------------------|-------------1--3-----------|
E|--------------------------|----------------------------|



Verse Part 1

G|-----------------------------------------------------------------|
D|--1h----------------------------------------3--------------------|
A|-----------------------------------------------------------------|
E|------------------------------------------------------1----------|

G|-----------------------1---||-----------3--------------|
D|--1--------------1--3-----*||*------------3------------|
A|-----------1--3-----------*||*--1----L------1----L--1--|
E|---------------------------||--------------------------|

G|--3-----------------------||--3----3-----------------|
D|--------------3----------*||--------------3-------1--|
A|-------------------------*||----------------1--3-----|
E|----------------1--4--5---||-------------------------|



Verse Part 2

G|--------------------------------------------1--------------------|
D|--3-----------------------------------------------3-----1--------|
A|--------------------------------------------------------------3--|
E|-----------------------------------------------------------------|

G|-------------------------|-----1--------------------|------------------------|
D|----------3-----------1--|--3--------3-----1--------|--3--------L-3-------1--|
A|--3----L--------1--3-----|-----------------------3--|---------------1--3-----|
E|-------------------------|--------------------------|------------------------|

G|-----1--------------------|-------------------------|-----1--------------------|
D|--3--------3-----1--------|----------3-----------1--|--3--------3-----1--------|
A|-----------------------3--|--3----L--------1--3-----|-----------------------3--|
E|--------------------------|-------------------------|--------------------------|

G|-------------------|-------------------|-------------------|
D|--3----------------|--L----------------|-------------------|
A|-------------------|-------------------|-------------------|
E|-------------------|-------------------|-------------------|

G|------------------------|
D|------------------------|
A|--3--------L-3----1--3--|
E|---------------3--------|



G|--------------------------------------1----|-----3--L----L------------|
D|------------------------------------3----3-|---------------3----------|
A|--1----------------------------------------|--1--------------------3--|
E|-------------------------------------------|-----------------1--4-----|

G|-------------------------|--------------------------|
D|----------------1--1--1--|--1h-3--------------------|
A|--1----------------------|--------------------------|
E|-------------------------|---------------1----------|

G|-------------------------1--|-----3-------------1----|
D|--1h-3-------------1--3-----|-----------------3----3-|
A|-------------1--3-----------|--1---------------------|
E|----------------------------|------------------------|

G|-----3--------------------|-------------------------|--------------------------|
D|---------------3----------|----------------1--1--1--|--1h-3--------------------|
A|--1--------------------3--|--1----------------------|--------------------------|
E|-----------------1--4-----|-------------------------|---------------1----------|

G|-------------------------1--|
D|--1h-3-------------1--3-----|
A|-------------1--3-----------|
E|----------------------------|



Leave your comments about this lesson