Beyonce

Work it Out

Work it Out by Beyonce Bass Tab and Video Lesson

120 BPM 120 BPM

Level: Easy

Genre:R&B

Instrument:4 String Bass

NOTES

Let's learn and play Work it Out by Beyonce in Bass Guitar.

Intro and Verse

G|-------------------------------------------|------------------------------|
D|------------------------8----8-10--8-------|-----------8----8-10--8-------|
A|-------------------------------------10----|------------------------10----|
E|--3----------------------------------------|--3---------------------------|


G|------------------------------|------------------------------|
D|-----------8----8-10--8-------|-----------8----8-10--8-------|
A|------------------------10----|------------------------10----|
E|--3---------------------------|--3---------------------------|


G|-------------------------------||
D|-----------8----8-10--8-------*||
A|------------------------10----*||
E|--3----------------------------||



G|------------------------|-------------------|---------------------|
D|------------------------|-------------------|---------------------|
A|------------------------|-------------------|---------------------|
E|--3---------------------|-------------------|--3------------------|


G|---------------------|---------------------------|---------------------------|
D|---------------------|-----------7----5-7--------|-----------7----5-7--------|
A|---------------------|---------------------5-5---|---------------------5-5---|
E|--3------------------|--3------------------------|--3------------------------|


G|---------------------------|---------------------------|
D|-----------7----5-7--------|-----------7----5-7--------|
A|---------------------5-5---|---------------------5-5---|
E|--3------------------------|--3------------------------|


G|---------------------------|---------------------------||
D|-----------7----5-7--------|-----------7----5-7--------||
A|--6------------------5-5---|--6------------------3-5---||
E|---------------------------|---------------------------||



Leave your comments about this lesson