Bob Marley

I Shot The Sheriff

Bob Marley Bass Tab and Video Lesson

96 BPM 96 BPM

Level: Intermediate

Genre:Reggae

Type of instrument:4 String Bass

NOTES

How to play I Shot The Sheriff by Bob Marley in Bass Guitar.

G|--------------------------------------------------3-5-|--L------------------|
D|---------------------------------3h-5-----------5-----|---------------------|
A|------------------------------5-----------------------|---------------------|
E|--6-----------------------------------3---------------|---------------------|

G|---------------------------|-----------------------------|
D|------3---3--5-------------|--3-3---3-----5--------------|
A|----5---5----------------5-|------------5----------------|
E|---------------------------|---------------------------3-|

G|-----------------------3-5-|--L------------------|---------------------------|
D|-----3--5------------5-----|---------------------|------3---3--5-------------|
A|--5------------------------|---------------------|----5---5----------------5-|
E|-----------3---------------|---------------------|---------------------------|

G|---------------------------|
D|--3-3---3-----5------------|
A|------------5--------------|
E|---------------------------|



G|--8------------------------------------7-------------|
D|-----------------------------8-----------7---------3-|
A|-------------------------------6--L--------5--L--5---|
E|-----------------------------------------------------|

G|---------------------7-------|--8-----------7-------------|
D|--5--------------------------|----8-----------7---------3-|
A|------5-5-5-5-5-5-5----------|------6--L--------5--L--5---|
E|-----------------------------|----------------------------|

G|-----------------------------|--8-----------7-------------|
D|--5---------------5----------|----8-----------7---------3-|
A|------5-5-5-5-5-5----5-------|------6--L--------5--L--5---|
E|-----------------------------|----------------------------|

G|---------------------7-------|--8-----------7-------------|
D|--5--------------------------|----8-----------7---------3-|
A|------5-5-5-5-5-5-5----------|------6--L--------5--L--5---|
E|-----------------------------|----------------------------|

G|------------------------5--7--|--8----L---8--7---------|
D|--5---------------------------|---------8--------------|
A|------5-5-5-5-5-5----5--------|------------------------|
E|------------------------------|------------------------|

G|-----------------------------|-------------------------|
D|--5---------------5----------|--5---3-L----------------|
A|------5-5-5-5-5-5------------|-----------5----3-----5--|
E|-----------------------------|-------------------6-----|

G|------------------------|
D|------------------------|
A|--3---------------------|
E|------6-L--3--L---------|



Leave your comments about this lesson