Bon Jovi

Bad Medicine

Bad Medicine by Bon Jovi Bass Tab and Video Lesson

118 BPM 118 BPM

Level: Intermediate

Genre:Hard Rock

Instrument:4 String Bass

NOTES

Let's learn how to play this rock classic by Bon Jovi, "Bad Medicine" in Bass Guitar.

G|-----------------------|--------------------|-------------------|
D|-----------------------|--------------------|-------------------|
A|-----------------------|-------7------------|--L----------------|
E|--------------3--2--0--|--L-----------------|-------------------|


G|-------------------|-----------------------|-------------------------|
D|-------------------|-----------------------|-------------------------|
A|--L----------------|--L--------------------|--------7----L-----7-----|
E|-------------------|--------------3--2--0--|--L--0----------0-----0--|


G|-----------------------|-------------------------|--------------------------|
D|-----------------------|-------------------------|-----------------------2--|
A|--0---------------7----|-----0--0----0--0--0--2--|-----------------2--4-----|
E|---------3--2--0-------|-------------------------|--3--2--0--0--L-----------|


G|--------0-----------------|------------------------|-------------------------|
D|--L--------2--L--2--------|------------------------|-------------------------|
A|-----2--------------2-----|--0----0-----------7----|-----0--0----0--0--0--2--|
E|-----------------------0--|----------3--2--0-------|-------------------------|


G|-------------------------|------------------------|-----------------------|
D|-------------------------|------------------------|-----------------------|
A|-------------------------|------------------------|-------------0---------|
E|--3--2--0--0--0----7\----|--0----0----0--0-----0--|--0--0--0---------3----|


G|-----------------------||
D|-----------------------||
A|-----------------------||
E|--0----0----0--0----0--||



G|---------------------|-------------------------|----------------------|
D|---------------------|-------------------------|----------------------|
A|---------------------|-------------------------|------------0---------|
E|------------------0--|--L--0--0----0--0-----0--|--0----0---------3----|


G|------------------------|-----------------------|------------------------|
D|------------------------|-----------------------|------------------------|
A|------------------------|-------------0---------|--0----0----0--0--------|
E|--0----0----0--0-----0--|--0----0--0-------3----|---------------------0--|


G|------------------------|------------------------|-----------------------|
D|------------------------|------------------------|-----------------------|
A|--0----0-----0--0-------|------------------------|-------------0---------|
E|----------0--------3----|--0----0----0--0-----0--|--0----0--0-------3----|


G|------------------------|------------------------|-------------------|
D|------------------------|------------------------|-------------------|
A|--2----2----2--2-----2--|--2----2----2-----------|-------------------|
E|------------------------|---------------3--2--3--|--0----------------|


G|-----------------------|-------------------|-----------------------|
D|-----------------------|-------------------|-----------------------|
A|-----------------------|-------------------|-----------------------|
E|--L-----------3--2--0--|--L----------------|--L-----------0--0--2--|


G|-----------------------|------------------------|-------------------------|
D|-----------------------|------------------------|-------------------------|
A|-----------------------|---------------2--4--5--|--L----5--0--5--4--3--2--|
E|--L----2----2--2--2----|--2----2----2-----------|-------------------------|


G|-------------------------||
D|-------------------------||
A|--L----2--0--2--0--------||
E|-------------------2--3--||



G|--------------------------|-----------------------|-------------------------|
D|--------------------------|-----------------------|-------------------------|
A|---------7----------7-----|--0---------------7----|-----0--0----0--0--0--2--|
E|--0-----------0--0-----0--|---------3--2--0-------|-------------------------|


G|--------------------------|--------0-----------------|------------------------|
D|-----------------------2--|--L--------2--L--2--------|------------------------|
A|-----------------2--4-----|-----2--------------2-----|--0----0-----------7----|
E|--3--2--0--0--L-----------|-----------------------0--|----------3--2--0-------|


G|-------------------------|--------------------------|------------------------|
D|-------------------------|--------------------------|------------------------|
A|-----0--0----0--0--0--2--|--------------------------|------------------------|
E|-------------------------|--3--2--0--0--L--0--0--2--|--3--3-----3--3----3----|


G|-------------------------|---------------------||
D|-------------------------|---------------------||
A|--0-------0--0----0--3s--|--7--------L\--------||
E|-------------------------|---------------------||



Guitar Solo

G|---------------------------------|------------------------|
D|---------------------------------|------------------------|
A|--------------7------------------|------------------------|
E|--0--------------0----0--0----0--|--0----0----0--0--0--2--|


G|--------------------------|--------------------------|-------------------|
D|-----------0--2--0--------|-----------2--5--4--2--2--|--2----------------|
A|--------2-----------2--0--|--L--0--4-----------------|-------------------|
E|--3--3--------------------|--------------------------|-------------------|


G|-----------------------|--------------------------|--------------------------|
D|-----------------------|--------------------------|--------------------------|
A|--------------------0--|--L--0--0--0--0--0--0--0--|--0-----0-----0--4--------|
E|--------------3--3-----|--------------------------|-----0-----0--------3--0--|


G|-------------------------|--------------------------|-------------------------|
D|-------------------------|--------------------------|-------------------------|
A|-------------------------|-----------------------0--|--L--0--0----0--0--0--0--|
E|--L--0--2--0--3--0----0--|--0--0--2--0--3--0--4-----|-------------------------|


G|-------------------------|--------------------------|--------------------------|
D|-------------------------|--------------------------|--------------0--0--1--1--|
A|--0--0--0----0-----0--1--|--2--2--2--2--2--2--2--2--|--2--2--4--4--------------|
E|----------------3--------|--------------------------|--------------------------|


G|---------------------||
D|--2------------------||
A|---------------------||
E|---------------------||



G|----------------------|--------------------------|--------------------------|
D|----------------------|--------------0--1-----0--|--1--0--1-----0--1--0--1--|
A|----------------9s----|--2--2--2--2--------2-----|-----------2--------------|
E|----------------------|--------------------------|--------------------------|


G|---------------------|-----------------------||
D|--2------------------|-----------------------||
A|---------------------|-----------------------||
E|---------------------|--------------3--2--0--||



G|---------------------------|-------------|-------------------|
D|---------------------------|-------------|-------------------|
A|---------------------------|-------------|-------------------|
E|--------3--2--0--L------3--|--2--0--L----|--L----------------|


G|-------------------|-------------------|-------------------|-------------------|
D|-------------------|-------------------|-------------------|-------------------|
A|-------------------|-------------------|-------------------|-------------------|
E|--L----------------|--L----------------|-------------------|-------------------|


G|-----------------------|---------------------|----------------------|
D|-----------------------|---------------------|----------------------|
A|-----------------------|-------7--------7----|--L----7--------7--7--|
E|--------------3--2--0--|--L------------------|----------------------|


G|--------------------------|--------------------------|-------------------------|
D|--------------------------|--------------------------|-------------------------|
A|-----7-----7-----7-----7--|--7--7--7--7--7-----------|--------7----------7-----|
E|--------------------------|-----------------3--2--0--|--L--0-------0--0-----0--|


G|------------------------|-------------------------|--------------------------|
D|------------------------|-------------------------|-----------------------2--|
A|--0----0-----------7----|-----0--0----0--0--0--2--|-----------------2--4-----|
E|----------3--2--0-------|-------------------------|--3--2--0--0--L-----------|


G|--------0-----------------|-----------------------|-------------------------|
D|--L--------2--L--2--------|-----------------------|-------------------------|
A|-----2--------------2-----|--0---------------7----|-----0--0----0--0--0--2--|
E|-----------------------0--|---------3--2--0-------|-------------------------|


G||---------------------------|--------0-----------------|-----------------------|
D||*-----------------------2--|--L--------2--L--2--------|-----------------------|
A||*-----------------2--4-----|-----2--------------2-----|--0---------------7----|
E||---3--2--0--0--L-----------|-----------------------0--|---------3--2--0-------|


G|--------------------------||
D|-------------------------*||
A|-----0--0----0--0--0--2--*||
E|--------------------------||



Leave your comments about this lesson