Carrie Underwood

Good Girl

Good Girl by Carrie Underwood Bass Tab and Video Lesson

Level: Easy

Genre:Country

Instrument:5 String Bass

NOTES

How to play Good Girl by Carrie Underwood in Bass Guitar.

G|---------------------------------------------------------|
D|---------------------------------------------------------|
A|------------------------------------------1-----1-----1--|
E|---------------------------------------------------------|
B|---------------------------------------------------------|

G|-----------------------|------------------------|-------------------------|
D|-----------------/3----|--1---------------------|------------------1--3s--|
A|--3--------------------|---------------1--1-----|--3------------3---------|
E|-----------------------|------------------------|-------------------------|
B|-----------------------|------------------------|-------------------------|

G|--------------------------|--------------------|
D|--4--3--1-----------------|--------------------|
A|-----------1-----1-----1--|--3-----------------|
E|--------------------------|--------------------|
B|--------------------------|--------------------|



G|-----------------------------------------------------------|
D|-----------------------------------------------------------|
A|--------------------------------------------1-----1-----1--|
E|-----------------------------------------------------------|
B|-----------------------------------------------------------|

G|-----------------------|------------------------|-----------------------|
D|-----------------/3----|--1---------------------|-----------------/3----|
A|--3--------------------|---------------1--1-----|--3--------------------|
E|-----------------------|------------------------|-----------------------|
B|-----------------------|------------------------|-----------------------|

G|-------------------------|-----------------------|------------------------|
D|--1----------------------|-----------------/3----|--1---------------------|
A|----------1-----1-----1--|--3--------------------|---------------1--1-----|
E|-------------------------|-----------------------|------------------------|
B|-------------------------|-----------------------|------------------------|

G|--------------------------|---------------------------|
D|--------------------------|---------------------------|
A|--3--3--3--1--1--1--0--0--|--0--1--1--1--1--1---------|
E|--------------------------|---------------------------|
B|--------------------------|--------------------4s--6--|



G|-------------------------------------------------------------|
D|-------------------------------------------------------------|
A|-------------------------------------------------------------|
E|--4-------------------------------------4--4--4--------------|
B|-------------------------------------------------4--4--4--4--|

G|--------------------------|--------------------------|
D|--------------------------|--------------------------|
A|-----------3--L--3--3-----|--------------------------|
E|--6--6--6--------------6--|--4--4--4--4--------------|
B|--------------------------|--------------4--4--4--4--|

G|--------------------------|--------------------------|-------------------------|
D|--------------------------|--------------------------|-------------------------|
A|--------------------------|--------------------------|-----------3--L--6--3----|
E|--6--6--6--6--6--6--6--6--|--4--4--4--4--------------|--6--6--6----------------|
B|--------------------------|--------------4--4--4--4--|-------------------------|

G|--------------------------|--------------------------|
D|--------------------------|--------------------------|
A|--------------------------|--------------------------|
E|--4--4--4--4--4--4--4--4--|--6--6--6--6--6--6--6--6--|
B|--------------------------|--------------------------|



G|--------------------------------------------------------------|
D|--------------------------------------------------------------|
A|--3--------------------------------------3--3--3--3--3--3--3--|
E|--------------------------------------------------------------|
B|--------------------------------------------------------------|

G|--------------------------|--------------------------|
D|--------------------------|--------------------------|
A|--6--6--6--6--6--6--6--6--|--1--1--1--1--1--1--1--1--|
E|--------------------------|--------------------------|
B|--------------------------|--------------------------|

G|--------------------------|--------------------------|
D|--------------------------|--------------------------|
A|--1--1--1--1--1--1--1--1--|--3--3--3--3--3--3--3--3--|
E|--------------------------|--------------------------|
B|--------------------------|--------------------------|

G|--------------------------|--------------------------|
D|--------------------------|--------------------------|
A|--6--6--6--6--6--6--6\----|--1--1--1--1--1--1--1--1--|
E|--------------------------|--------------------------|
B|--------------------------|--------------------------|

G|---------------------------------|
D|---------------------------------|
A|--1--1--1--1/--13--13--13s--15\--|
E|---------------------------------|
B|---------------------------------|



G|---------------------------------------------------------|
D|---------------------------------------------------/3----|
A|--3------------------------------------------------------|
E|---------------------------------------------------------|
B|---------------------------------------------------------|

G|------------------------|-----------------------|-------------------------|
D|--1---------------------|-----------------/3----|--1----------------------|
A|---------------1--1-----|--3--------------------|----------1-----1-----1--|
E|------------------------|-----------------------|-------------------------|
B|------------------------|-----------------------|-------------------------|

G|-----------------------|------------------------|-----------------------|
D|-----------------/3----|--1---------------------|-----------------/3----|
A|--3--------------------|---------------1--1-----|--3--------------------|
E|-----------------------|------------------------|-----------------------|
B|-----------------------|------------------------|-----------------------|

G|-------------------------|--------------------------|--------------------------|
D|--1----------------------|--------------------/3----|--1--1--1--1--1-----------|
A|----------1-----1-----1--|--3--3--3--3--3--3--------|-----------------1--1-----|
E|-------------------------|--------------------------|--------------------------|
B|-------------------------|--------------------------|--------------------------|

G|--------------------------|--------------------------|
D|--------------------/3----|--1--1--1-----------------|
A|--3--3--3--3--3--3--------|-----------1-----1-----1--|
E|--------------------------|--------------------------|
B|--------------------------|--------------------------|

G|--------------------------|--------------------------|
D|--------------------/3----|--1--1--1--1--1-----------|
A|--3--3--3--3--3--3--------|-----------------1--1-----|
E|--------------------------|--------------------------|
B|--------------------------|--------------------------|

G|--------------------------|---------------------------|
D|--------------------------|---------------------------|
A|--3--3--3--1--1--1--0--0--|--0--1--1--1--1--1---------|
E|--------------------------|---------------------------|
B|--------------------------|--------------------4s--6--|



Guitar Solo

G|-------------------------------------------------------------|
D|-------------------------------------------------------/3----|
A|--3------------------------------------------3----3----------|
E|-------------------------------------------------------------|
B|-------------------------------------------------------------|

G|-------------------------|-------------------------|------------------------||
D|--1----------------------|------------------1--3s--|--4--3--1--------------*||
A|----------1-----1-----1--|--3----3----3--3---------|-----------1--L---------||
E|-------------------------|-------------------------|-----------------------*||
B|-------------------------|-------------------------|------------------------||

G|--------------------|
D|--------------------|
A|--3-----------------|
E|--------------------|
B|--------------------|



Leave your comments about this lesson