Creedence Clearwater Revival

Proud Mary

Creedence Clearwater Revival Bass Tab and Video Lesson

Level: Beginner

Genre:Rock

Type of instrument:4 String Bass

NOTES

How to play Proud Mary by Creedence Clearwater Revival in Bass Guitar.

Intro

G|----------------|----------------|----------------|----------------| 
D|----------------|----------------|----------------|----------------| 
A|3--3--0--0--0---|3--3--0--0--0---|3--3--0---------|-----------5----| 
E|----------------|----------------|----------3---1-|1-1-1-----------| 

G|----------------|----------------| 
D|-----------7----|-----------7----| 
A|-5--5-5-5-------|-5--5-5-5-------| 
E|----------------|----------------| 



Verse

G|----------------|----------------|----------------|----------------| 
D|----------------|------------7---|----------------|------------7---| 
A|5---5--5--5-----|5--5-5-5--------|5---5--5--5-----|5--5-5-5--------| 
E|----------------|----------------|----------------|--------------5-| 

G|----------------|----------------|----------------|----------------| 
D|----------------|----------------|----------------|------4--5---6--| 
A|5---5--5--5-----|5--5-5-5--------|5---5--5--5-----|5--5------------| 
E|----------------|----------------|----------------|----------------| 

G|----------------|----------------|----------------|----------------| 
D|-7--7-----------|7---7-----------|9----9----------|9---9-----------| 
A|---------7------|---------7------|---------9------|--------9--9--9-| 
E|----------------|----------------|----------------|----------------| 

G|----------------|----------------|----------------|----------------| 
D|----------------|----------------|----------------|----4--5---6----| 
A|5----5--5--5----|5----5---5---5--|5-5--5--5-5-----|5-5-------------| 
E|----------------|----------------|----------------|----------------| 



Leave your comments about this lesson