David Bowie

Mother Love

Mother Love by David Bowie Bass Tab and Video Lesson

91 BPM 91 BPM

Level: Intermediate

Genre:R&B

Instrument:4 String Bass

NOTES

Let's play on Bass Guitar this classic from David Bowie, "Mother Love" with Bass Tabs, Video Lessons and Guitar Pro Files.

Verse 1 and 2

G|---------------------------------|----------------------|
D|----------------9----------------|-----5----------------|
A|--7------------------------------|--3----3-L------------|
E|------------------0-L------------|----------------------|


                                         NH   NH                             
G|----------------------|---------------------<>4----||-----------------------|
D|-----7----------------|-----9----------<>4---------||*-----5----------------|
A|--5----5-L------------|--7-------------------------||*--3----3-L------------|
E|----------------------|-------0-L------------------||-----------------------|


G|--------------------------|------------------------|--------------------------|
D|-----5--------------------|------------------------|-----7--------------------|
A|--3----3-L--------L--3h-5-|------------------------|---------------------3h-5-|
E|--------------------------|--3----3-L--------L-----|--5----5-L--------L-------|


G|---------------------|----------------------|--------------------------|
D|---------------------|-----3----------------|-----5--------------------|
A|--7------------------|----------------------|--3----3-L--------L--3h-5-|
E|------0-L------------|--1----1-L------------|--------------------------|


G|--------------------------|-----------------------||
D|--------------------------|----------------------*||
A|------------------------5-|-----7----------------*||
E|--3----3-L--------L-5-7---|--0----0-L-------------||



G|------------------------------------|------------------------------|
D|------------------------------------|------------------------------|
A|--3----------3-L---3-3----3-L-0-3-4-|--5----5-L---0-5----5-L-0-5-6-|
E|------------------------------------|------------------------------|


G|------------------------------|-------------------------------|
D|------------------------------|-------------------------------|
A|--7----7-L-----7----7-L-7-6-7-|--8----8-L-----8-8-7-7-5-5-7-7-|
E|------------------------------|-------------8-----------------|


G|-----------------------------|------------------------------|
D|-----------------------------|------------------------------|
A|--3----3-L-----3----3-L-0-3--|--5----5-L---0-5----5-L-5-4-5-|
E|-----------------------------|------------------------------|


G|------------------------------|---------------------------|
D|------------------------------|---------------------------|
A|--7----7-L-----7----7-L-7-5-7-|--8----8-L-----8--7--5--7--|
E|-------------7----------------|-------------8-------------|


G|------------------------------|------------------------------|
D|------------------------------|------------------------------|
A|--3----3-L-----3----3-L-0-3-4-|--5----5-L---0-5----5-L-5-4-5-|
E|-------------3----------------|------------------------------|


G|------------------------------|-------------------------------||
D|------------------------------|-------------------------------||
A|--7----7-L-----7----7-L-7-5-7-|--8----8-L-----8-8-7-7-5-5-7-7-||
E|-------------7----------------|-------------8-----------------||



G|--------------------------------|--------------------------|
D|-----------5--------------------|-----5--------------------|
A|--3----------3-L--------L--3h-5-|--3----3-L--------L--3h-5-|
E|--------------------------------|--------------------------|


G|------------------------|------------------------|-----------------------|
D|------------------------|------------------------|-----------------------|
A|------------------------|------------------------|-----------------------|
E|--3----3-L--------L-----|--5-----5-5--5-L--------|--0-----0---0-L--------|


G|-----------------------|-----------------------------|
D|-----------------------|-----------------------------|
A|-----------------------|--3-----3-3--3-L----L-3-3h-5-|
E|--1-----1---1-L--------|-----------------------------|


G|---------------------------|---------------------------||
D|-------------------------0-|--2-----------------------*||
A|---------------------0-2---|--------------------------*||
E|--3-----3---3-L----L-------|--------0---0-L----12\-----||



G|----------------------------|----------------------------|
D|----------------------------|----------------------------|
A|--3----------3---3-L--------|--3-----3-3--3-L----L--3h-5-|
E|----------------------------|----------------------------|


G|-------------------------|----------------------------|
D|-------------------------|----------------------------|
A|-------------------------|----------------------------|
E|--3-----3-3--3-L----3----|--5-----5-5--5-L----L--5h-7-|


G|---------------------------|---------------------------|
D|---------------------2-----|---------------------------|
A|-----------------------2-3-|-----------------------0-2-|
E|--0-----0---0-L----L-------|--1-----1---1-L----L-1-----|


G|-----------------------------|----------------------------|
D|-----------------------------|------------------------0-2-|
A|--3-----3-3--3-L----L-3-3h-5-|----------------------2-----|
E|-----------------------------|--3---3-3-3--3-L----3-------|


G|--------------------------||
D|-------------------------*||
A|-------------------7--5--*||
E|--0-----0---0-L-----------||



Final Chorus

G|-------------------------------------|-----------------------------|
D|-------------------------------------|-----------------------------|
A|--3---------------3---3-L-----3--3-4-|--5-----5-5--5-L---5-L-0-5-6-|
E|----------------------------3--------|-----------------------------|


G|----------------------------|------------------------------|
D|----------------------------|------------------------------|
A|--7-----7---7-L-----7-7-5-7-|--8-----8---8-8-8-7-7-5-5-7-7-|
E|------------------7---------|------------------------------|


G|---------------------------|----------------------------|
D|---------------------------|----------------------------|
A|--3-----3---3-L--------3-4-|--5-----5---5-L---0-5-5-3-5-|
E|-------------------3-5-----|----------------------------|


G|----------------------------|------------------------------||
D|----------------------------|------------------------------||
A|--7-----7---7-L-----7-7-5-7-|--8---8-8---8-8-8-7-7-5-5-7-7-||
E|------------------7---------|------------------------------||



Leave your comments about this lesson