Foo Fighters

Monkey Wrench

Monkey Wrench by Foo Fighters Bass Tab and Video Lesson

172 BPM 172 BPM

Level: Easy

Genre:Rock

Instrument:4 String Bass

NOTES

Play with Bass Tab and Video "Monkey Wrench" by Foo Fighters in Bass Guitar. This song use a Drop D tuning

G|---------------------------------------------|--------------------------|
D|---------------------------------------------|-----------------4--4--4--|
A|--2---------------------2--2--2--2--2--2--2--|--2--2--2--2--2-----------|
D|---------------------------------------------|--------------------------|

    
G|--------------------------|---------------------------||
D|--4--2--2--2--2--2--2--2--|--2--2--2--0--2--0--2--0--*||
A|--------------------------|--------------------------*||
D|--------------------------|---------------------------||



Verse 1 and 2

G|-----------------------------------------------|--------------------------|
D|-----------------------------------------------|-----------------4--4--4--|
A|------------------------------2----2--2--2--2--|--2--2--2--2--2-----------|
D|-----------------------------------------------|--------------------------|

						     4x
G|--------------------------|---------------------------||
D|--4--2--2--2--2--2--2--2--|--2--2--2--0--2--0--2--0--*||
A|--------------------------|--------------------------*||
D|--------------------------|---------------------------||


G|-------------------------|--------------------------||
D|*------------------------|-------------------------*||
A|*------------------------|-------------------------*||
D|--------2----2--2--0--2--|--L--2----0--2--0--2--0---||


G|--------------------------||
D|--------------------------||
A|--------------------------||
D|--2--2--2--0--2--0--2--4--||



G|------------------------------------------|--------------------------|
D|------------------------------------4--6--|--L--6--6--4--6--4-----4--|
A|--2----------------------2----5--6--------|--------------------------|
D|------------------------------------------|--------------------------|


G|-------------------------|-------------------------||--------------------------|
D|--L--2--2----2--2--2--4--|--L--2--2--4--L--x-------||*-------------------4--6--|
A|-------------------------|--------------------3----||*--2--2--2----5--6--------|
D|-------------------------|-------------------------||--------------------------|


G|--------------------------|-------------------------|
D|--L--6--6--4--6--4-----4--|--L--2--2----2--2--2--4--|
A|--------------------------|-------------------------|
D|--------------------------|-------------------------|


			  3x 
G|--------------------------||---------------------------|
D|--L--2--2--4--L--x-------*||*--------------------------|
A|--------------------3----*||*--2--2--2--2--2--2--2--2--|
D|--------------------------||---------------------------|


G|--------------------------|--------------------------|
D|-----------------4--4--4--|--4--2--2--2--2--2--2--2--|
A|--2--2--2--2--2-----------|--------------------------|
D|--------------------------|--------------------------|


G|---------------------------||
D|--2--2--2--0--2--0--2--0--*||
A|--------------------------*||
D|---------------------------||



G|----------------------------------------|--------------------------|
D|----------------------------------------|--------------------------|
A|-------------------------7--------------|--------------------------|
D|--6----------------------------9-----5--|--L--5--5--5--5--5-----4--|


G|--------------------------|---------------------------||
D|--------------------------|--------------------------*||
A|--------------------------|--------------------------*||
D|--L--2--2--2--2--2--2--4--|--L--2--2--2--2--2--2--2---||


G|-------------------------|-------------------------|--------------------------|
D|-------------------------|-------------------------|--------------------------|
A|-------------------------|-------------------------|--------------------------|
D|--4--2--2--2--2----2--4--|--L--2--2--2--2----2--4--|--L--2--2--4--L--2--2--4--|


G|-------------------------||
D|-------------------------||
A|--------------------3----||
D|--L--2--2--4--L--2-------||



G|-----------------------------------------------|--------------------------|
D|-----------------------------------------------|-----------------4--4--4--|
A|--2-----------------------2--2--2--2--2--2--2--|--2--2--2--2--2-----------|
D|-----------------------------------------------|--------------------------|

  						       4x
G|--------------------------|---------------------------||
D|--4--2--2--2--2--2--2--2--|--2--2--2--0--2--0--2--0--*||
A|--------------------------|--------------------------*||
D|--------------------------|---------------------------||

G|-------------------------|---------------------------||
D|*------------------------|--------------------------*||
A|*------------------------|--------------------------*||
D|--------2----2--2--0--2--|--L--2--2--0--2--0--2--0---||


G|-------------------------|--------------------------||
D|-------------------------|--------------------------||
A|-------------------------|--------------------------||
D|-------2-----2-----0--2--|--L--2--2--0--2--0--2--4--||



G|---------------------------------------------|--------------------------|
D|---------------------------------------------|-----------------4--4--4--|
A|--2---------------------2--2--2--2--2--2--2--|--2--2--2--2--2-----------|
D|---------------------------------------------|--------------------------|

						     3x
G|--------------------------|---------------------------||
D|--4--2--2--2--2--2--2--2--|--2--2--2--0--2--0--2--0--*||
A|--------------------------|--------------------------*||
D|--------------------------|---------------------------||


G|--------------------------|--------------------------|-------------------------|
D|--------------------------|--------------------------|-------------------------|
A|--2--2--2--2--2--2--2--2--|--2--2--2--2--2--2--2-----|-------------------------|
D|--------------------------|-----------------------4--|--L--2--2--2--2----x--4--|


G|-------------------------|--------------------------|-------------------------|
D|-------------------------|--------------------------|-------------------------|
A|-------------------------|--------------------------|--------------------3----|
D|--L--2--2--2--2----x--4--|--L--2--0--4--L--2--0--4--|--L--2--0--4--L--0-------|


G|---------------------||
D|---------------------||
A|--2------------------||
D|---------------------||



Leave your comments about this lesson