Gnarls Barkley

Crazy

Crazy by Gnarls Barkley Bass Tab and Video Lesson

120 BPM 120 BPM

Level: Beginner

Genre:Rap

Instrument:4 String Bass

NOTES

How to play Crazy by Gnarls Barkley in Bass Guitar.

Intro and Verse

G|--------------------------||--------------------------------|
D|--10----10----10----10----||*--10-----10--10--10-----10-----|
A|--------------------------||*-------------------------------|
E|--------------------------||--------------------------------|

G|-------------------------------|--------------------------|
D|--10-----10--10--10-----10-----|--------------------------|
A|-------------------------------|--6-----6--6--6-----6-----|
E|-------------------------------|--------------------------|

G|--------------------------|--------------------------|
D|--------------------------|--6-----6--6--6-----6-----|
A|--6-----6--6--6-----6-----|--------------------------|
E|--------------------------|--------------------------|

G|--------------------------|--------------------------|
D|--6-----6--6--6-----6-----|--5-----5--5--5-----5-----|
A|--------------------------|--------------------------|
E|--------------------------|--------------------------|

G|---------------------------|
D|--5-----5--5--5-----5-----*|
A|--------------------------*|
E|---------------------------|



G|--------------------------------|-------------------------------|
D|*--10-----10--10--10-----10-----|--10-----10--10--10-----10-----|
A|*-------------------------------|-------------------------------|
E|--------------------------------|-------------------------------|

G|--------------------------|--------------------------|
D|--------------------------|--------------------------|
A|--6-----6--6--6-----6-----|--6-----6--6--6-----6-----|
E|--------------------------|--------------------------|

G|--------------------------|--------------------------|
D|--6-----6--6--6-----6-----|--6-----6--6--6-----6-----|
A|--------------------------|--------------------------|
E|--------------------------|--------------------------|

G|--------------------------|---------------------------|
D|--5-----5--5--5-----5-----|--5-----5--5--5-----5-----*|
A|--------------------------|--------------------------*|
E|--------------------------|---------------------------|



G|-------------------------------|-------------------------------|
D|--10-----10--10--10-----10-----|--10-----10--10--10-----10-----|
A|-------------------------------|-------------------------------|
E|-------------------------------|-------------------------------|

G|--------------------------|--------------------------|
D|--6-----6--6--6-----6-----|--6-----6--6--6-----6-----|
A|--------------------------|--------------------------|
E|--------------------------|--------------------------|

G|--------------------------|--------------------------|
D|--------------------------|--------------------------|
A|--6-----6--6--6-----6-----|--6-----6--6--6-----6-----|
E|--------------------------|--------------------------|

G|-------------------------------|--------------------------------|
D|-------------------------------|--------------------------------|
A|--10-----10--10--10-----10-----|--10-----10--10--10-----10--10--|
E|-------------------------------|--------------------------------|



Leave your comments about this lesson