Guns and Roses

Sweet Child o Mine

Guns and Roses Bass Tab and Video Lesson

Level: Easy

Genre:Hard Rock

Type of instrument:4 String Bass

NOTES

IMPORTANT We recorded this song in D key, but the original song was recorded in Db key.

G|-----------------------------------------------------------| 
D|-----------------------------------------------------------| 
A|-------------------------------------------------------12--| 
E|-----------------------------------------------------------| 

G|----------11--------11--12--|--14----16--14--12--11--------| 
D|--12------------12----------|------------------------12----| 
A|----------------------------|------------------------------| 
E|----------------------------|------------------------------| 

G|----------12-------L------|--10--9------10---L--9-----------| 
D|--10------------------10--|---------10-------------10-------| 
A|--------------------------|----------------------------/12--| 
E|--------------------------|---------------------------------| 

G|-----------------------|--12-------------L------| 
D|--5------------L--/12--|--------------------12--| 
A|-----------------------|------------------------| 
E|-----------------------|------------------------| 

G|--12--11------12---L--11--------|-----------------------| 
D|----------12--------------12----|---L-------------------| 
A|--------------------------------|----------------12\----| 
E|--------------------------------|-----------------------| 



G|------------------------------------------------------------| 
D|------------------------------------------------------------| 
A|--5--------------------------------------------5--5------5--| 
E|------------------------------------------------------------| 

G|------------------------|----------------------|------------------------| 
D|------------4--7--4-----|----------------------|------------3--2--------| 
A|--5------5--------------|--3------3--3------3--|--3------3--------3-----| 
E|---------------------5--|----------------------|---------------------5--| 

G|----------------------|--------------------------|----------------------| 
D|----------------------|--------3--4--5-----------|----------------------| 
A|----------------------|-----------------2--3--4--|--5------5--5------5--| 
E|--3------3--3------3--|--3--0--------------------|----------------------| 

G|------------------------| 
D|--4--7--------5----4----| 
A|-----------5------------| 
E|--------5---------------| 



G|--------------------------------------------------------------| 
D|--------------------------------------------------------------| 
A|--5----------------------------------------------5--5------5--| 
E|--------------------------------------------------------------| 

G|-----------------------|-----------------------|------------------------| 
D|-----------------------|-----------------------|------------------------| 
A|--5------5--5----0--2--|--3-------3--3------3--|--3------3--3--3--2--0--| 
E|-----------------------|-----------------------|------------------------| 

G|----------------------|------------------------|----------------------| 
D|----------------------|---------------5--------|----------------------| 
A|----------------------|---------------------0--|--5------5--5------5--| 
E|--3------3--3------3--|--3------3--3-----------|----------------------| 

G|-----7------------------|----------------------|-----------------------| 
D|--------------5----4----|----------------------|-----------------------| 
A|--5-----0--5------------|--5------5--5------5--|--5------5--5----0--2--| 
E|------------------------|----------------------|-----------------------| 

G|----------------------|--------------------------|----------------------| 
D|----------------------|--------------------------|----------------------| 
A|--3------3--3------3--|--3-----------------------|----------------------| 
E|----------------------|-----0--0--0--1--1--2--2--|--3------3--3------3--| 

G|------------------------|-------------------5-6-|--7--7--7--7--7------------| 
D|------------------------|-----------------------|---------------------------| 
A|---------------2--3--4--|--5------5--5----------|-----------------0--12\----| 
E|--3------3--3-----------|-----------------------|---------------------------| 



Chorus 1 and Guitar Solo 1

G|------------------------------------|-------------------------| 
D|------------------------------------|-------------------------| 
A|--0-------------------0--L----0--2--|--3-------3--L--3--3--0--| 
E|------------------------------------|-------------------------| 

G|------------------------|-------------------------|------------------------| 
D|------------------------|-------------7--5--4-----|------------------------| 
A|--5-------5--5-------5--|--5-------5-----------5--|--0-------0--L----0--2--| 
E|------------------------|-------------------------|------------------------| 

                                                                           \6     
G|-------------------------|---------------------5-6-|--7--7--7--7--L-----------| 
D|-------------------------|-------------------------|--------------------------| 
A|--3-------3--L--3--3--0--|--5-------5--5-----------|-----------------0--12----| 
E|-------------------------|-------------------------|--------------------------| 

G|------------------------|----------------7--L-----|-----------------------| 
D|------------------------|-------------------------|-----------------------| 
A|--5-------5--5-------5--|--5-------5--5--------0--|--3---------3-------3--| 
E|------------------------|-------------------------|-----------------------| 

G|-----5-----------5--L-----|------------------------|--------------------------| 
D|--------------------------|------------------------|--------------------------| 
A|--3--------0--3-----------|------------------------|--------2--0--3--0--4--0--| 
E|-----------------------0--|--3-------3--3-------3--|--L--0--------------------| 

G|------------------------|-----7------------------|-------------------| 
D|------------------------|--------------5----4----|-------------------| 
A|--5-------5--5-------5--|--5-----0--5------------|--5----------------| 
E|------------------------|------------------------|-------------------| 



G|----------------------|-----------------------|-----------------------| 
D|----------------------|-----------------------|-----------------------| 
A|--5------5--5------5--|--5------5--5----0--2--|--3-------3--3------3--| 
E|----------------------|-----------------------|-----------------------| 

G|------------------------|----------------------|----------------------| 
D|------------5--3--2-----|----------------------|----------------------| 
A|--3------3-----------3--|----------------------|-----------------3----| 
E|------------------------|--3------3--3------3--|--3------3--3---------| 

G|----------------------|-----7---------7-----7--|----------------------| 
D|----------------------|------------------------|----------------------| 
A|--5------5--5------5--|--5---------5-----5-----|--5------5--5------5--| 
E|----------------------|------------------------|----------------------| 

G|-----------------------|-----------------------|--------------------------| 
D|-----------------------|-----------------------|--------------------------| 
A|--5------5--5----0--2--|--3-------3--3------3--|--3-----------------------| 
E|-----------------------|-----------------------|-----0--0--0--1--1--2--2--| 

G|-----------------------|--------------------------|-------------------5-6-| 
D|-----------------------|-----2--3--4--5-----------|-----------------------| 
A|-----------------------|-----------------2--3--4--|--5------5--5----------| 
E|--3----3--3--3------3--|--3-----------------------|-----------------------| 

G|--7--7--7--7--7------------| 
D|---------------------------| 
A|-----------------0--12\----| 
E|---------------------------| 



Chorus 2 and Guitar Solo 2

G|------------------------|-------------------------|----------------------| 
D|------------------------|-------------------------|----------------------| 
A|--0-------0--L----0--2--|--3-------3--L--3--3--0--|--5------5--5------5--| 
E|------------------------|-------------------------|----------------------| 

G|---------------7-----7--|------------------------|----------------------| 
D|------------------------|------------------------|----------------------| 
A|--5------5--5-----5-----|--0-------0--L----0--2--|--3-------3--L--------| 
E|------------------------|------------------------|----------------------| 

G|----------------------|--7-----7-----7-----7-----|----------------------| 
D|----------------------|--------------------------|----------------------| 
A|--5------5--5------5--|-----5-----5-----5-----5--|--5------5--5------5--| 
E|----------------------|--------------------------|----------------------| 

G|-----------------------|----------------------|------------------------| 
D|-----------------------|----------------------|-----2------3--3--4--4--| 
A|--5------5--5----0--2--|--3------3--3------3--|--3---------------------| 
E|-----------------------|----------------------|------------------------| 

G|----------------------|--------------------------|----------------------| 
D|----------------------|-----2--3--4--5-----------|----------------------| 
A|----------------------|-----------------2--3--4--|--5------5--5------5--| 
E|--3------3--3------3--|--3-----------------------|----------------------| 

G|------------------------|----------------------|-----------------------| 
D|--4--7--------5----4----|----------------------|-----------------------| 
A|--------5--5------------|--5------5--5------5--|--5------5--5----0--2--| 
E|------------------------|----------------------|-----------------------| 

G|----------------------|-----------------------|----------------------| 
D|----------------------|-----------------------|----------------------| 
A|--3------3--3------3--|--3------3--3--2--0----|----------------------| 
E|----------------------|-----------------------|--3------3--3------3--| 

G|--------------------------|----------------------| 
D|-----2--3--4--5-----------|----------------------| 
A|-----------------2--3--4--|--5------5--5------5--| 
E|--3-----------------------|----------------------| 

G|-----7-7-7-7-7-7-7-7-7-7-7-----| 
D|----------------------------7--| 
A|--0----------------------------| 
E|-------------------------------| 



G|------------------------|-------------------------|----------------------| 
D|------------------------|-------------------------|----------------------| 
A|--0-------0--0----0--2--|--3-------3--L--3--3--0--|--5------5--5------5--| 
E|------------------------|-------------------------|----------------------| 

G|-------------------------|------------------------|----------------------| 
D|-----7----7--7--5--4-----|------------------------|----------------------| 
A|--5-------------------5--|--0-------0--0----0--2--|--3-------3--L--------| 
E|-------------------------|------------------------|----------------------| 

G|----------------------|--------------------------|------------------------| 
D|----------------------|--------------------------|------------------------| 
A|--5------5--5------5--|--5-----------------------|--0-------0--L----0--2--| 
E|----------------------|-----0--2--0--3--0--4--0--|------------------------| 

G|------------------------|----------------------|-----7--------7-----7-----| 
D|------------------------|----------------------|--------------------------| 
A|--3-------3--L----3--0--|--5------5--5------5--|--5-----5--5-----5-----5--| 
E|------------------------|----------------------|--------------------------| 

G|------------------------|-----------------------|--------------------------| 
D|------------------------|-----------------------|--------------------------| 
A|--0-------0--0----0--2--|--3-------3--L---------|--5--5--5--5--5--5--5--5--| 
E|------------------------|-----------------------|--------------------------| 

G|-------------------------| 
D|-------------------------| 
A|--5--5--5--5--5--0--6----| 
E|-------------------------| 



Guitar Solo 3 - 1st Part

G|-------------------------|----------5--L---------|---------4--L---------| 
D|----------2--L-----------|-----------------------|----------------------| 
A|-------------------------|--3----3----------3----|--2--------------2----| 
E|--0----0--------0--2--3--|-----------------------|----------------------| 

G|----------2--L------------||---------------------------| 
D|-------------------------*||-----------------------4-5-| 
A|--0----------------------*||--0--0--0--0--0--0--0------| 
E|----------------0--3--2---||---------------------------| 

G|--------------------------| 
D|--7--7--7--7--7--5--4--4--| 
A|--------------------------| 
E|--------------------------| 



Guitar Solo 3 - 2nd Part

G|-----------------------|----------------------|---------2--L----------| 
D|---------2--L----------|---------5--L---------|-----------------------| 
A|-----------------------|----------------------|--0--------------0--2--| 
E|--0--------------0--2--|--3--------------3----|-----------------------| 

                          4x 
G|-------------------------| 
D|------------------------*| 
A|--3--3--3--3--5---------*| 
E|-------------------3-----| 



G|-------------------------|------------------------|------------------------| 
D|-------------------------|------------------------|------------------------| 
A|-------------------------|------------------------|--0-------0--L----------| 
E|--0-------0--L--------2--|--3-------3--L----------|------------------------| 

G|------------------------|-------------------------|------------------------| 
D|------------------------|-------------------------|------------------------| 
A|-----3--3--3--5---------|-------------------------|------------------------| 
E|-------------------3----|--0-------0--L--------2--|--3-------3--L----------| 

G|------------------------|------------------------|-------------------------| 
D|------------------------|------------------------|-------------------------| 
A|--0-------0--L----------|-----3--3--3--5---------|-------------------------| 
E|------------------------|-------------------3----|--0-------0--L--------2--| 

G|------------------------|------------------------|------------------------| 
D|------------------------|------------------------|------------------------| 
A|------------------------|--0-------0--L----------|--3--3--3--3--5---------| 
E|--3-------3--L----------|------------------------|-------------------3----| 

G|--------------------------|--------------------------| 
D|--------------------------|--------------------------| 
A|--------------------------|--------------------------| 
E|--0--0--0--0--0--0--0--2--|--3--3--3--3--3--3--3--3--| 

G|--------------------------|--------------------------| 
D|--------------------------|--------------------------| 
A|--0--0--0--0--0--0--0--0--|--3--3--3--3--5--5--------| 
E|--------------------------|--------------------3--3--| 



G|-----------------------|----------------------|---------2--L----------| 
D|---------2--L----------|---------5--L---------|-----------------------| 
A|-----------------------|----------------------|--0--------------0--2--| 
E|--0--------------0--2--|--3--------------3----|-----------------------| 

G|------------------------|-----------------------|----------------------| 
D|------------------------|---------2--L----------|---------5--L---------| 
A|--3--3--3--3--5---------|-----------------------|----------------------| 
E|-------------------3----|--0--------------0--2--|--3--------------3----| 

G|---------2--L----------|------------------------|-----------------------| 
D|-----------------------|------------------------|---------2--L----------| 
A|--0--------------0--2--|--3--3--3--3--5---------|-----------------------| 
E|-----------------------|-------------------3----|--0--------------0--2--| 

                                                   |----3----|    |----3----|      
G|-----------------------|---------2--L---------|--------------------------------| 
D|---------5--L----------|----------------------|--------------------------------| 
A|-----------------------|--0-------------------|--7----5------------------------| 
E|--3--------------3--3--|----------------------|------------7----6----5----3----| 

G|------------------------|----------------------|-------------------| 
D|---------2--L-----------|---------5--L---------|-------------------| 
A|------------------------|----------------------|--0----------------| 
E|--0------------0--0--2--|--3--------------3----|-------------------| 

G|--------------------|-------------------|-------------------| 
D|--------------------|-------------------|-------------------| 
A|--3--------5--------|-------------------|-------------------| 
E|--------------------|--0----------------|--L----------------| 

G|-------------------|--------------------| 
D|-------------------|--------------------| 
A|-------------------|--------------------| 
E|--L----------------|--L-----------------| 



Leave your comments about this lesson