Jackson 5

ABC

ABC by Jackson 5 Bass Tab and Video Lesson

Level: Easy

Genre:R&B

Instrument:4 String Bass

NOTES

How to play ABC by Jackson 5 in Bass Guitar.

G|--------------------------------------|-----------------------------| 
D|--------------------------------------|-----------------------------| 
A|--------------------------------6-8\--|-----------------------6-8\--| 
E|--------------------------------------|--4-4---4-4------------------| 

G|-----------------------------|-----------------------------| 
D|-----------------------------|-----------------------------| 
A|-----------------------6-8\--|-----------------------6-8\--| 
E|--4-4---4-4------------------|--4-4---4-4------------------| 

G|-----------------------------|---------------------------------| 
D|-----------------------------|---------------6-L-6-6-----------| 
A|-----------------------6-8\--|---------------------------6-8\--| 
E|--4-4---4-4------------------|--4-4---4-4----------------------| 

G|---------------------------------|---------------------------------| 
D|---------------6-L-6-6-----------|---------------6-L-6-6-----------| 
A|---------------------------6-8\--|---------------------------6-8\--| 
E|--4-4---4-4----------------------|--4-4---4-4----------------------| 

G|------------------------------| 
D|---------------6-L-6-6--------| 
A|------------------------------| 
E|--4-4---4-4-------------------| 



Chorus 1st Part

G|-----------------------------------|-------------------------| 
D|-----------------------------------|-------------------------| 
A|-----------------------------------|--------3----------------| 
E|---------------------------------4-|--L--6-----------------4-| 

G|-------------------------|--------------------------|--------------------------| 
D|-------------------------|--------------------3---6-|--L--5--3-----------------| 
A|--------3----------------|--------3---4-L--6--------|------------4-L--6--------| 
E|--L--6-----------------4-|--L--6--------------------|--------------------4-----| 

G|--------5-----------------|--------5-----------------| 
D|--6--8--------------3--5--|--6--8--------------3--5--| 
A|-----------3--4--6--------|-----------3--4--6--------| 
E|--------------------------|--------------------------| 

G|--------5------------------|--------------------| 
D|--6--8--------------3--5-6-|--L--5--3-----------| 
A|-----------3--4--6---------|------------4-L--6--| 
E|---------------------------|--------------------| 

G|--------------------------------|--------------------------------| 
D|--6-6---6-6-6---6-6-6---6-6-----|--6-6---6-6-6---6-6-6---6-6-----| 
A|--------------------------------|--------------------------------| 
E|--------------------------------|--------------------------------| 

G|--------------------------------|--------------------------------| 
D|--6-6---6-6-6---6-6-6---6-6-----|--6-6---6-6-6---6-6-6---6-6-----| 
A|--------------------------------|--------------------------------| 
E|--------------------------------|--------------------------------| 



Chorus 2nd Part

G|----------------------------------5------------------| 
D|--6----------------------------8--------------3--5-6-| 
A|-------------------------------------3--4--6---------| 
E|-----------------------------------------------------| 

G|---------------------------|---------------------------| 
D|--L--5--3----------------6-|--L--5--3----------------6-| 
A|------------4-L--6---------|------------4-L--6---------| 
E|--------------------4------|--------------------4------| 

G|---------------------------|--------------------|--------------------| 
D|--L--5--3----------------6-|--L--5--3-----------|--------------------| 
A|------------4-L--6---------|------------4-L--6--|--------------------| 
E|--------------------4------|--------------------|--4-----------------| 



G|------------------------------------|--------------------------| 
D|------------------------------------|--------------------3-----| 
A|------------------------------------|--------3---4-L--6--------| 
E|----------------------------------4-|--L--6------------------4-| 

G|--------------------------|--------------------------| 
D|--------------------3-----|--------------------3-----| 
A|--------3---4-L--6--------|--------3---4-L--6--------| 
E|--L--6------------------4-|--L--6------------------4-| 

G|--------------------------|--------------------------| 
D|--------------------3-----|--------------------3-----| 
A|--------3---4-L--6--------|--------3---4-L--6--------| 
E|--L--6------------------4-|--L--6------------------4-| 

G|--------------------------|---------------------------|--------5--------------| 
D|--------------------3---6-|--L--5--3----------------6-|--L--8-----------------| 
A|--------3---4-L--6--------|------------4-L--6---------|-----------------------| 
E|--L--6--------------------|--------------------4------|-----------------------| 



G|----------------------------------|--------5------------------| 
D|--------------------------------6-|--L--8--------------3--5-6-| 
A|----------------------------------|-----------3--4--6---------| 
E|----------------------------------|---------------------------| 

G|--------5-------------------|--------5------------------|---------------------| 
D|--L--8---------------3-3-5--|--6--8--------------3--5-6-|--L-6-5--3-----------| 
A|-----------3--4-4-6---------|-----------3--4--6---------|------------3--4--6--| 
E|----------------------------|---------------------------|---------------------| 

G|--------------------------------|---------------------------------| 
D|--6-6---6-6-6---6-6-6---6-6-----|--6-6---6-6-6---6-6-6---6-6----6-| 
A|--------------------------------|---------------------------------| 
E|--------------------------------|---------------------------------| 

G|--------5-----------------| 
D|--L--8--------------3--5--| 
A|-----------3--4--6--------| 
E|--------------------------| 



Leave your comments about this lesson