Jackson 5

I Want You Back

I Want You Back by Jackson 5 Bass Tab and Video Lesson

Level: Intermediate

Genre:R&B

Instrument:4 String Bass

NOTES

How to play I Want You Back by Jackson 5 in Bass Guitar.

Intro and Verse

G|------------------------------------------------|---------------------------|
D|--------------------------------------------3---|---------------------------|
A|----------------------------------------3-6---4-|---------------3-4-L-5-6-7-|
E|--4-----------------------------------6---------|-------------6-------------|

G|-----------------------|----------------------|---------------------------|
D|-----------------------|----------------------|-----------------------3---|
A|--8----3----4----------|-------6--------------|-------------------3-6---4-|
E|----------------4------|--6--------4----------|--4--------------6---------|

G|---------------------------|-----------------------|
D|---------------------------|-----------------------|
A|---------------3-4-L-5-6-7-|--8----3----4----------|
E|-------------6-------------|----------------4------|

G|----------------------------|
D|---------------------6---6--|
A|-------6--------6h-8---8----|
E|--6--------4----------------|



G|-------------------------------------------------|
D|--6-----------------------6-5---5-3-3--1-L---1---|
A|-------------------------------------------3---3-|
E|-------------------------------------------------|

G|-----------------------------|-----------------------|
D|-----------------------------|-----------------------|
A|--4---4-3---3-1-1--6-L---6-7-|--8----3----4----------|
E|-----------------------6-----|----------------4------|

G|----------------------------|
D|---------------------6---6--|
A|-------6--------6h-8---8----|
E|--6--------4----------------|



G|---------------------------------------------|---------------------------|
D|---------------------------------------------|---------------------------|
A|--8------------------------8-3----4----------|-------6-------------------|
E|--------------------------------------4------|--6------------4-4-4-4-----|

G|-------------------------|-------------------------|-------------------------|
D|-------------------------|-------------------------|-------------------------|
A|-------------------------|-------------------------|-------------------------|
E|-------------4-4-4-4-----|-------------4-4-4-4-----|-------------4-4-4-4-----|



G|----------------------------1-5--------------------------|
D|--3---------------------------------1-5-----3-6----------|
A|--------------------------------3-L-----4-L---------3-6--|
E|------------------------------------------------4-L------|

G|----1-5--------------------------|----1-5--------------------------|
D|--3---------1-5-----3-6----------|--3---------1-5-----3-6----------|
A|--------3-L-----4-L---------3-6--|--------3-L-----4-L---------3-6--|
E|------------------------4-L------|------------------------4-L------|



Special Slow

G|----------------------------1-5--------------------------|
D|--3---------------------------------1-5-----3-6----------|
A|--------------------------------3-L-----4-L---------3-6--|
E|------------------------------------------------4-L------|

G|----1-5--------------------------|----1-5--------------------------|
D|--3---------1-5-----3-6----------|--3---------1-5-----3-6----------|
A|--------3-L-----4-L---------3-6--|--------3-L-----4-L---------3-6--|
E|------------------------4-L------|------------------------4-L------|



G|----------------------------------------|-------------------------|
D|----------------------------------------|-------------------------|
A|----------------------------------------|-------------------------|
E|----------------------------4-4-4-4-----|-------------4-4-4-4-----|

G|---------------|--------------------------|------6-------------------------|
D|-----------6---|--6---6-5---5-3-3--1-L----|----6---------------------------|
A|-------6-8---6-|--------------------------|--4-----3-L-3-3-1-L-1-1--6--6-7-|
E|---------------|--------------------------|--------------------------------|

G|-----------------------|---------------------------|
D|-----------------------|---------------------------|
A|--8----3----4----------|-------6-------------------|
E|----------------4------|--6------------4-4-4-4-----|



Final Slow

G|----------------------------------------|-------------------------|
D|----------------------------------------|-------------------------|
A|----------------------------------------|-------------------------|
E|----------------------------4-4-4-4-----|-------------4-4-4-4-----|

G|---------------|--------------------------|------6-------------------------|
D|-----------6---|--6---6-5---5-3-3--1-L----|----6---------------------------|
A|-------6-8---6-|--------------------------|--4-----3-L-3-3-1-L-1-1--6--6-7-|
E|---------------|--------------------------|--------------------------------|

G|-----------------------|---------------------------|
D|-----------------------|---------------------------|
A|--8----3----4----------|-------6-------------------|
E|----------------4------|--6------------4-4-4-4-----|



Leave your comments about this lesson