Jamiroquai

Space Cowboy

Space Cowboy by Jamiroquai Bass Tab and Video Lesson

Level: Advanced

Genre:Jazz

Instrument:4 String Bass

NOTES

How to play Space Cowboy by Jamiroquai in Bass Guitar.

G|-------------------------|-----------5-L--------|-----------4-L----L-----|
D|-------------------------|----------------------|------------------------|
A|--4----------------------|--3----L--------------|--2----L----------------|
E|-------------------------|----------------------|----------------------0-|

G|------------------------------|-------------8--------------|
D|-------------------------6----|-----------6----------------|
A|------------------------------|--4----L--------x-4-L-x-4-x-|
E|--2---x-2-L-x-2s--4----L----4-|----------------------------|

G|-----------5--------------|---------------6--------------|
D|--------------5-----------|----------4s-6---x------------|
A|--3-------------3-L-x-4-x-|--2----L-----------x-2-x-x-4--|
E|--------------------------|------------------------------|

G|------------------------------|
D|-------------------------6----|
A|------------------------------|
E|--2---x-2-L-x-2s--4----L----4-|



Verse Slow

G|-------------------------|-----------5-L--------|-----------4-L----L-----|
D|-------------------------|----------------------|------------------------|
A|--4----------------------|--3----L--------------|--2----L----------------|
E|-------------------------|----------------------|----------------------0-|

G|------------------------------|-------------8--------------|
D|-------------------------6----|-----------6----------------|
A|------------------------------|--4----L--------x-4-L-x-4-x-|
E|--2---x-2-L-x-2s--4----L----4-|----------------------------|

G|-----------5--------------|---------------6--------------|
D|--------------5-----------|----------4s-6---x------------|
A|--3-------------3-L-x-4-x-|--2----L-----------x-2-x-x-4--|
E|--------------------------|------------------------------|

G|------------------------------|
D|-------------------------6----|
A|------------------------------|
E|--2---x-2-L-x-2s--4----L----4-|



Verse Right Hand

G|-------------------------|-----------5-L--------|-----------4-L----L-----|
D|-------------------------|----------------------|------------------------|
A|--4----------------------|--3----L--------------|--2----L----------------|
E|-------------------------|----------------------|----------------------0-|

G|------------------------------|-------------8--------------|
D|-------------------------6----|-----------6----------------|
A|------------------------------|--4----L--------x-4-L-x-4-x-|
E|--2---x-2-L-x-2s--4----L----4-|----------------------------|

G|-----------5--------------|---------------6--------------|
D|--------------5-----------|----------4s-6---x------------|
A|--3-------------3-L-x-4-x-|--2----L-----------x-2-x-x-4--|
E|--------------------------|------------------------------|

G|------------------------------|
D|-------------------------6----|
A|------------------------------|
E|--2---x-2-L-x-2s--4----L----4-|



Verse Slow Right Hand

G|-------------------------|-----------5-L--------|-----------4-L----L-----|
D|-------------------------|----------------------|------------------------|
A|--4----------------------|--3----L--------------|--2----L----------------|
E|-------------------------|----------------------|----------------------0-|

G|------------------------------|-------------8--------------|
D|-------------------------6----|-----------6----------------|
A|------------------------------|--4----L--------x-4-L-x-4-x-|
E|--2---x-2-L-x-2s--4----L----4-|----------------------------|

G|-----------5--------------|---------------6--------------|
D|--------------5-----------|----------4s-6---x------------|
A|--3-------------3-L-x-4-x-|--2----L-----------x-2-x-x-4--|
E|--------------------------|------------------------------|

G|------------------------------|
D|-------------------------6----|
A|------------------------------|
E|--2---x-2-L-x-2s--4----L----4-|



Pre Chorus

G|-----------------------------------6-(6)--------------|
D|------------------------------------------------------|
A|--4----------------------------------------x-4-4------|
E|------------------------------------------------------|

G|-----------4-(4)--------------|------------------------|
D|------------------------------|-----------6-6----------|
A|--2----------------x-2-2------|------------------------|
E|------------------------------|--4---------------------|

G|----------------------------------|-------------------|
D|-------------------6h-8--6-L------|-------------------|
A|-----------------------------8--6-|--L----------------|
E|--4---x-4---x-4s-6----------------|-------------------|



Pre Chorus Slow

G|-----------------------------------6-(6)--------------|
D|------------------------------------------------------|
A|--4----------------------------------------x-4-4------|
E|------------------------------------------------------|

G|-----------4-(4)--------------|------------------------|
D|------------------------------|-----------6-6----------|
A|--2----------------x-2-2------|------------------------|
E|------------------------------|--4---------------------|

G|----------------------------------|-------------------|
D|-------------------6h-8--6-L------|-------------------|
A|-----------------------------8--6-|--L----------------|
E|--4---x-4---x-4s-6----------------|-------------------|



Pre Chorus Right Hand

G|-----------------------------------6-(6)--------------|
D|------------------------------------------------------|
A|--4----------------------------------------x-4-4------|
E|------------------------------------------------------|

G|-----------4-(4)--------------|------------------------|
D|------------------------------|-----------6-6----------|
A|--2----------------x-2-2------|------------------------|
E|------------------------------|--4---------------------|

G|----------------------------------|-------------------|
D|-------------------6h-8--6-L------|-------------------|
A|-----------------------------8--6-|--L----------------|
E|--4---x-4---x-4s-6----------------|-------------------|



Pre Chorus Slow Right Hand

G|-----------------------------------6-(6)--------------|
D|------------------------------------------------------|
A|--4----------------------------------------x-4-4------|
E|------------------------------------------------------|

G|-----------4-(4)--------------|------------------------|
D|------------------------------|-----------6-6----------|
A|--2----------------x-2-2------|------------------------|
E|------------------------------|--4---------------------|

G|----------------------------------|-------------------|
D|-------------------6h-8--6-L------|-------------------|
A|-----------------------------8--6-|--L----------------|
E|--4---x-4---x-4s-6----------------|-------------------|



1st Chorus

G|-----------------------------------------|-----------------------------|
D|--------------------------6h-8--6-L------|-----------------------------|
A|------------------------------------8--6-|--L-------6---8--------------|
E|-----------------------------------------|-----------------------4---6-|

G|--------------------------|-----------------------------|
D|---------x--8----6-L------|-----------------------------|
A|---------------8-----8--6-|--L-------6---8------------6-|
E|--------------------------|---------------------4h-6----|

G|-------------------------------|------------------------------|
D|----------------6h-8--6-L------|------------------------------|
A|--L-4---------------------8--6-|--L-------6---8---------------|
E|------6---6--4-----------------|--------------------x-x-4---6-|

G|-------------------------|-------------------------|
D|-----------8----6-L------|-------------------------|
A|--------------8-----8--6-|--L-------6---8----------|
E|-------------------------|-------------------------|



1st Chorus Slow

G|-----------------------------------------|-----------------------------|
D|--------------------------6h-8--6-L------|-----------------------------|
A|------------------------------------8--6-|--L-------6---8--------------|
E|-----------------------------------------|-----------------------4---6-|

G|--------------------------|-----------------------------|
D|---------x--8----6-L------|-----------------------------|
A|---------------8-----8--6-|--L-------6---8------------6-|
E|--------------------------|---------------------4h-6----|

G|-------------------------------|------------------------------|
D|----------------6h-8--6-L------|------------------------------|
A|--L-4---------------------8--6-|--L-------6---8---------------|
E|------6---6--4-----------------|--------------------x-x-4---6-|

G|-------------------------|-------------------------|
D|-----------8----6-L------|-------------------------|
A|--------------8-----8--6-|--L-------6---8----------|
E|-------------------------|-------------------------|



1st Chorus Right Hand

G|-----------------------------------------|-----------------------------|
D|--------------------------6h-8--6-L------|-----------------------------|
A|------------------------------------8--6-|--L-------6---8--------------|
E|-----------------------------------------|-----------------------4---6-|

G|--------------------------|-----------------------------|
D|---------x--8----6-L------|-----------------------------|
A|---------------8-----8--6-|--L-------6---8------------6-|
E|--------------------------|---------------------4h-6----|

G|-------------------------------|------------------------------|
D|----------------6h-8--6-L------|------------------------------|
A|--L-4---------------------8--6-|--L-------6---8---------------|
E|------6---6--4-----------------|--------------------x-x-4---6-|

G|-------------------------|-------------------------|
D|-----------8----6-L------|-------------------------|
A|--------------8-----8--6-|--L-------6---8----------|
E|-------------------------|-------------------------|



1st Chorus Slow Right Hand

G|-----------------------------------------|-----------------------------|
D|--------------------------6h-8--6-L------|-----------------------------|
A|------------------------------------8--6-|--L-------6---8--------------|
E|-----------------------------------------|-----------------------4---6-|

G|--------------------------|-----------------------------|
D|---------x--8----6-L------|-----------------------------|
A|---------------8-----8--6-|--L-------6---8------------6-|
E|--------------------------|---------------------4h-6----|

G|-------------------------------|------------------------------|
D|----------------6h-8--6-L------|------------------------------|
A|--L-4---------------------8--6-|--L-------6---8---------------|
E|------6---6--4-----------------|--------------------x-x-4---6-|

G|-------------------------|-------------------------|
D|-----------8----6-L------|-------------------------|
A|--------------8-----8--6-|--L-------6---8----------|
E|-------------------------|-------------------------|



2nd Chorus

G|-----------------------------------------|-----------------------------|
D|--------------------------6h-8--6-L------|-----------------------------|
A|------------------------------------8--6-|--L-------6---8--------------|
E|-----------------------------------------|-----------------------4---6-|

G|-------------------------|-----------------------------|
D|-----------/8---6-L------|-----------------------------|
A|--------------------8--6-|--L-------6---8------------6-|
E|-------------------------|---------------------4h-6----|

G|--------------------------------|----------------------------|
D|--------------------------------|----------------------------|
A|--L-4------------/8--8-8-L-6--6-|---------6---8--------------|
E|------6-4-6-6-1-----------------|----------------------4---6-|

G|-------------------------|---------------------------|
D|-----------8----6-L------|---------------------------|
A|--------------8-----8--6-|--L-------6---8------------|
E|-------------------------|---------------------4---6-|

G|----8-6---6--------------------|
D|--------8-------6h-8--6-L------|
A|--------------------------8--6-|
E|-------------------------------|



2nd Chorus Slow

G|-----------------------------------------|-----------------------------|
D|--------------------------6h-8--6-L------|-----------------------------|
A|------------------------------------8--6-|--L-------6---8--------------|
E|-----------------------------------------|-----------------------4---6-|

G|-------------------------|-----------------------------|
D|-----------/8---6-L------|-----------------------------|
A|--------------------8--6-|--L-------6---8------------6-|
E|-------------------------|---------------------4h-6----|

G|--------------------------------|----------------------------|
D|--------------------------------|----------------------------|
A|--L-4------------/8--8-8-L-6--6-|---------6---8--------------|
E|------6-4-6-6-1-----------------|----------------------4---6-|

G|-------------------------|---------------------------|
D|-----------8----6-L------|---------------------------|
A|--------------8-----8--6-|--L-------6---8------------|
E|-------------------------|---------------------4---6-|

G|----8-6---6--------------------|
D|--------8-------6h-8--6-L------|
A|--------------------------8--6-|
E|-------------------------------|



2nd Chorus Right Hand

G|-----------------------------------------|-----------------------------|
D|--------------------------6h-8--6-L------|-----------------------------|
A|------------------------------------8--6-|--L-------6---8--------------|
E|-----------------------------------------|-----------------------4---6-|

G|-------------------------|-----------------------------|
D|-----------/8---6-L------|-----------------------------|
A|--------------------8--6-|--L-------6---8------------6-|
E|-------------------------|---------------------4h-6----|

G|--------------------------------|----------------------------|
D|--------------------------------|----------------------------|
A|--L-4------------/8--8-8-L-6--6-|---------6---8--------------|
E|------6-4-6-6-1-----------------|----------------------4---6-|

G|-------------------------|---------------------------|
D|-----------8----6-L------|---------------------------|
A|--------------8-----8--6-|--L-------6---8------------|
E|-------------------------|---------------------4---6-|

G|----8-6---6--------------------|
D|--------8-------6h-8--6-L------|
A|--------------------------8--6-|
E|-------------------------------|



2nd Chorus Slow Right Hand

G|-----------------------------------------|-----------------------------|
D|--------------------------6h-8--6-L------|-----------------------------|
A|------------------------------------8--6-|--L-------6---8--------------|
E|-----------------------------------------|-----------------------4---6-|

G|-------------------------|-----------------------------|
D|-----------/8---6-L------|-----------------------------|
A|--------------------8--6-|--L-------6---8------------6-|
E|-------------------------|---------------------4h-6----|

G|--------------------------------|----------------------------|
D|--------------------------------|----------------------------|
A|--L-4------------/8--8-8-L-6--6-|---------6---8--------------|
E|------6-4-6-6-1-----------------|----------------------4---6-|

G|-------------------------|---------------------------|
D|-----------8----6-L------|---------------------------|
A|--------------8-----8--6-|--L-------6---8------------|
E|-------------------------|---------------------4---6-|

G|----8-6---6--------------------|
D|--------8-------6h-8--6-L------|
A|--------------------------8--6-|
E|-------------------------------|



1st Special

G|------------------------------------------------6h-|
D|---------------------------------------------------|
A|--6------------------------------6---8-------------|
E|---------------------------------------------------|

         T       T           S           T       T           S     
G|--8------------------------6h-8-|-----------------------x--6h-8-|
D|--------------------------------|-------------------------------|
A|--------------------------------|-------------------------------|
E|-------2h-4----2h-4/------------|------2h-4----2h-4/------------|

        T       T           S           T       T           S     
G|-----------------------x--6h-8-|-----------------------x--6h-8-|
D|-------------------------------|-------------------------------|
A|-------------------------------|-------------------------------|
E|------2h-4----2h-4/------------|------2h-4----2h-4/------------|

        T       T           S           T       T           S     
G|-----------------------x--6h-8-|--------------------------6h-8-|
D|-------------------------------|-------------------------------|
A|-------------------------------|-------------------------------|
E|------2h-4----2h-4/------------|------2h-4----2h-4/------------|

        T       T                                                                 
G|-------------------------------|---------------------------|-------------------|
D|-------------------------------|------1-3-4---4-5-6--------|--L----------------|
A|---------------------------4-5-|--6------------------------|-------------------|
E|------2h-4----2h-4/------4-----|---------------------------|-------------------|

G|-----5-----------------|
D|--L-----13-------------|
A|-----------------------|
E|-----------------------|



1st Special Slow

G|------------------------------------------------6h-|
D|---------------------------------------------------|
A|--6------------------------------6---8-------------|
E|---------------------------------------------------|

         T       T           S           T       T           S     
G|--8------------------------6h-8-|-----------------------x--6h-8-|
D|--------------------------------|-------------------------------|
A|--------------------------------|-------------------------------|
E|-------2h-4----2h-4/------------|------2h-4----2h-4/------------|

        T       T           S           T       T           S     
G|-----------------------x--6h-8-|-----------------------x--6h-8-|
D|-------------------------------|-------------------------------|
A|-------------------------------|-------------------------------|
E|------2h-4----2h-4/------------|------2h-4----2h-4/------------|

        T       T           S           T       T           S     
G|-----------------------x--6h-8-|--------------------------6h-8-|
D|-------------------------------|-------------------------------|
A|-------------------------------|-------------------------------|
E|------2h-4----2h-4/------------|------2h-4----2h-4/------------|

        T       T                                                                 
G|-------------------------------|---------------------------|-------------------|
D|-------------------------------|------1-3-4---4-5-6--------|--L----------------|
A|---------------------------4-5-|--6------------------------|-------------------|
E|------2h-4----2h-4/------4-----|---------------------------|-------------------|

G|-----5-----------------|
D|--L-----13-------------|
A|-----------------------|
E|-----------------------|



1st Special Right Hand

G|------------------------------------------------6h-|
D|---------------------------------------------------|
A|--6------------------------------6---8-------------|
E|---------------------------------------------------|

         T       T           S           T       T           S     
G|--8------------------------6h-8-|-----------------------x--6h-8-|
D|--------------------------------|-------------------------------|
A|--------------------------------|-------------------------------|
E|-------2h-4----2h-4/------------|------2h-4----2h-4/------------|

        T       T           S           T       T           S     
G|-----------------------x--6h-8-|-----------------------x--6h-8-|
D|-------------------------------|-------------------------------|
A|-------------------------------|-------------------------------|
E|------2h-4----2h-4/------------|------2h-4----2h-4/------------|

        T       T           S           T       T           S     
G|-----------------------x--6h-8-|--------------------------6h-8-|
D|-------------------------------|-------------------------------|
A|-------------------------------|-------------------------------|
E|------2h-4----2h-4/------------|------2h-4----2h-4/------------|

        T       T                                                                 
G|-------------------------------|---------------------------|-------------------|
D|-------------------------------|------1-3-4---4-5-6--------|--L----------------|
A|---------------------------4-5-|--6------------------------|-------------------|
E|------2h-4----2h-4/------4-----|---------------------------|-------------------|

G|-----5-----------------|
D|--L-----13-------------|
A|-----------------------|
E|-----------------------|



1st Special Slow Right Hand

G|------------------------------------------------6h-|
D|---------------------------------------------------|
A|--6------------------------------6---8-------------|
E|---------------------------------------------------|

         T       T           S           T       T           S     
G|--8------------------------6h-8-|-----------------------x--6h-8-|
D|--------------------------------|-------------------------------|
A|--------------------------------|-------------------------------|
E|-------2h-4----2h-4/------------|------2h-4----2h-4/------------|

        T       T           S           T       T           S     
G|-----------------------x--6h-8-|-----------------------x--6h-8-|
D|-------------------------------|-------------------------------|
A|-------------------------------|-------------------------------|
E|------2h-4----2h-4/------------|------2h-4----2h-4/------------|

        T       T           S           T       T           S     
G|-----------------------x--6h-8-|--------------------------6h-8-|
D|-------------------------------|-------------------------------|
A|-------------------------------|-------------------------------|
E|------2h-4----2h-4/------------|------2h-4----2h-4/------------|

        T       T                                                                 
G|-------------------------------|---------------------------|-------------------|
D|-------------------------------|------1-3-4---4-5-6--------|--L----------------|
A|---------------------------4-5-|--6------------------------|-------------------|
E|------2h-4----2h-4/------4-----|---------------------------|-------------------|

G|-----5-----------------|
D|--L-----13-------------|
A|-----------------------|
E|-----------------------|



2nd Special

                                 S          T       T           S     
    H.                       E.  S     S E  S  S E  S  Q     E  S  S  
G|-------------------------------6h-|--8------------------------6h-8-|
D|----------------------------------|--------------------------------|
A|----------------------------------|--------------------------------|
E|----------------------------------|-------2h-4----2h-4/------------|

        T       T           S           T       T                 
    E.  S  S E  S  Q     E  S  S    E.  S  S E  S  Q     S S S S  
G|-----------------------x--6h-8-|-----------------------6---x-6-|
D|-------------------------------|-------------------------------|
A|-------------------------------|-------------------------------|
E|------2h-4----2h-4/------------|------2h-4----2h-4/------------|

       S             S                 T       T           S     
    E  E  S S S S E  E  S S S S    E.  S  S E  S  Q     E  S  S  
G|-----6--6---x-6----6--6---x-6-|-----------------------x--6h-8-|
D|------------------------------|-------------------------------|
A|------------------------------|-------------------------------|
E|------------------------------|------2h-4----2h-4/------------|

        T       T           S           T       T           S     
    E.  S  S E  S  Q     E  S  S    E.  S  S E  S  Q     E  S  S  
G|--------------------------6h-8-|--------------------------6h-8-|
D|-------------------------------|-------------------------------|
A|-------------------------------|-------------------------------|
E|------2h-4----2h-4/------------|------2h-4----2h-4/------------|

    Q    E  E  S S S S S E  S   
G|-------6--8-----------------|
D|-------------6-7-8----------|
A|-------------------8-L-7--6-|
E|----------------------------|



2nd Special Slow

                                 S          T       T           S     
    H.                       E.  S     S E  S  S E  S  Q     E  S  S  
G|-------------------------------6h-|--8------------------------6h-8-|
D|----------------------------------|--------------------------------|
A|----------------------------------|--------------------------------|
E|----------------------------------|-------2h-4----2h-4/------------|

        T       T           S           T       T                 
    E.  S  S E  S  Q     E  S  S    E.  S  S E  S  Q     S S S S  
G|-----------------------x--6h-8-|-----------------------6---x-6-|
D|-------------------------------|-------------------------------|
A|-------------------------------|-------------------------------|
E|------2h-4----2h-4/------------|------2h-4----2h-4/------------|

       S             S                 T       T           S     
    E  E  S S S S E  E  S S S S    E.  S  S E  S  Q     E  S  S  
G|-----6--6---x-6----6--6---x-6-|-----------------------x--6h-8-|
D|------------------------------|-------------------------------|
A|------------------------------|-------------------------------|
E|------------------------------|------2h-4----2h-4/------------|

        T       T           S           T       T           S     
    E.  S  S E  S  Q     E  S  S    E.  S  S E  S  Q     E  S  S  
G|--------------------------6h-8-|--------------------------6h-8-|
D|-------------------------------|-------------------------------|
A|-------------------------------|-------------------------------|
E|------2h-4----2h-4/------------|------2h-4----2h-4/------------|

    Q    E  E  S S S S S E  S   
G|-------6--8-----------------|
D|-------------6-7-8----------|
A|-------------------8-L-7--6-|
E|----------------------------|



2nd Special Right Hand

                                 S          T       T           S     
    H.                       E.  S     S E  S  S E  S  Q     E  S  S  
G|-------------------------------6h-|--8------------------------6h-8-|
D|----------------------------------|--------------------------------|
A|----------------------------------|--------------------------------|
E|----------------------------------|-------2h-4----2h-4/------------|

        T       T           S           T       T                 
    E.  S  S E  S  Q     E  S  S    E.  S  S E  S  Q     S S S S  
G|-----------------------x--6h-8-|-----------------------6---x-6-|
D|-------------------------------|-------------------------------|
A|-------------------------------|-------------------------------|
E|------2h-4----2h-4/------------|------2h-4----2h-4/------------|

       S             S                 T       T           S     
    E  E  S S S S E  E  S S S S    E.  S  S E  S  Q     E  S  S  
G|-----6--6---x-6----6--6---x-6-|-----------------------x--6h-8-|
D|------------------------------|-------------------------------|
A|------------------------------|-------------------------------|
E|------------------------------|------2h-4----2h-4/------------|

        T       T           S           T       T           S     
    E.  S  S E  S  Q     E  S  S    E.  S  S E  S  Q     E  S  S  
G|--------------------------6h-8-|--------------------------6h-8-|
D|-------------------------------|-------------------------------|
A|-------------------------------|-------------------------------|
E|------2h-4----2h-4/------------|------2h-4----2h-4/------------|

    Q    E  E  S S S S S E  S   
G|-------6--8-----------------|
D|-------------6-7-8----------|
A|-------------------8-L-7--6-|
E|----------------------------|



2nd Special Slow Right Hand

                                 S          T       T           S     
    H.                       E.  S     S E  S  S E  S  Q     E  S  S  
G|-------------------------------6h-|--8------------------------6h-8-|
D|----------------------------------|--------------------------------|
A|----------------------------------|--------------------------------|
E|----------------------------------|-------2h-4----2h-4/------------|

        T       T           S           T       T                 
    E.  S  S E  S  Q     E  S  S    E.  S  S E  S  Q     S S S S  
G|-----------------------x--6h-8-|-----------------------6---x-6-|
D|-------------------------------|-------------------------------|
A|-------------------------------|-------------------------------|
E|------2h-4----2h-4/------------|------2h-4----2h-4/------------|

       S             S                 T       T           S     
    E  E  S S S S E  E  S S S S    E.  S  S E  S  Q     E  S  S  
G|-----6--6---x-6----6--6---x-6-|-----------------------x--6h-8-|
D|------------------------------|-------------------------------|
A|------------------------------|-------------------------------|
E|------------------------------|------2h-4----2h-4/------------|

        T       T           S           T       T           S     
    E.  S  S E  S  Q     E  S  S    E.  S  S E  S  Q     E  S  S  
G|--------------------------6h-8-|--------------------------6h-8-|
D|-------------------------------|-------------------------------|
A|-------------------------------|-------------------------------|
E|------2h-4----2h-4/------------|------2h-4----2h-4/------------|

    Q    E  E  S S S S S E  S   
G|-------6--8-----------------|
D|-------------6-7-8----------|
A|-------------------8-L-7--6-|
E|----------------------------|



Leave your comments about this lesson