Kiss

Shock Me

Shock Me by Kiss Bass Tab and Video Lesson

138 BPM 138 BPM

Level: Easy

Genre:Hard Rock

Instrument:4 String Bass

NOTES

Learn how to play SHOCK ME by KISS in Bass Guitar. Tune your bass down 1/2 step.

F#|----------------------------------------|--------------------------|
C#|----------------------------------------|--------------------------|
G#|--5----------------0-----0--L--0--5--0--|-----0--5--0--------------|
D#|----------------------------------------|--------------2b----2b----|


F#|-----------------------------|------------------------|
C#|-----------------------------|------------------------|
G#|-----5--5--5--5g7--5---------|--------------0---------|
D#|-------------------------2b--|--L--0--2b--------------|


F#|---------------------------|--------------------------|
C#|*--------------------------|--------------------------|
G#|*--5--0-----0--L--0--5--0--|--L--0--5--0--------------|
D#|---------------------------|--------------2b----2b----|


F#|-----------------------------|--------------------------||
C#|-----------------------------|--------------------------||
G#|-----5--5--5--5g7--5---------|--------------0-------0-0-||
D#|-------------------------2b--|--L--0--2b----------------||



F#|-------------------------------------------|--------------------------|
C#|-------------------------------------------|--------------------------|
G#|-------------------------------------------|--------------------------|
D#|--5----------------------5-----5-----5--0--|--5-----5-----5-----5--0--|


F#|------------------------|-------------------------|--------------------------|
C#|------------------------|-------------------------|--------------------------|
G#|--5----------5--5-------|--5----------3-----------|--------------------------|
D#|------------------------|----------------0--2--3--|--5-----5-----5-----5--0--|


F#|--------------------------|------------------------|-------------------------|
C#|--------------------------|------------------------|-------------------------|
G#|--------------------------|--5----------5--5-------|--5----------3-----------|
D#|--5-----5-----5-----5--0--|------------------------|----------------0--2--3--|


F#|--------------------------|--------------------------|
C#|--------------------------|--------------------------|
G#|--------------------------|--------------------------|
D#|--5-----5-----5-----5--0--|--5-----5-----5-----5--0--|


F#|--------------------------|--------------------------|----------------------||
C#|--------------------------|--------------------------|----------------------||
G#|--5----------5--5-----5s--|--7--7--7--7--7--7--7--7--|--7-------------------||
D#|--------------------------|--------------------------|----------------------||



F#|-------------------------------------------|--------------------------|
C#|-------------------------------------------|--------------------------|
G#|-------------------------------------------|--------------------------|
D#|--5----------------------5-----5-----5--0--|--5-----5-----5-----5--0--|


F#|------------------------|------------------------|--------------------------|
C#|------------------------|------------------------|--------------------------|
G#|--5----------5--5-------|--5----------3--3-------|--------------------------|
D#|------------------------|------------------------|--5-----5-----5-----5--0--|


F#|--------------------------|------------------------|------------------------|
C#|--------------------------|------------------------|------------------------|
G#|--------------------------|--5----------5--5-------|--5----------3--3-------|
D#|--5-----5-----5-----5--0--|------------------------|------------------------|

	
F#|--------------------------|--------------------------|
C#|--------------------------|--------------------------|
G#|--------------------------|--------------------------|
D#|--5-----5-----5-----5--0--|--5-----5-----5-----5--0--|


F#|--------------------------|--------------------------|----------------------||
C#|--------------------------|--------------------------|----------------------||
G#|--5----------5--5-----5s--|--7--7--7--7--7--7--7-----|--7-------------------||
D#|--------------------------|-----------------------0--|----------------------||



Guitar Solo

F#|----------------------------------------------|--------------------------|
C#|----------------------------------------------|--------------------------|
G#|--5----------------------0-----0--L--0--5--0--|--L--0--5--0--------------|
D#|----------------------------------------------|--------------2b----2b----|

						      4x
F#|-----------------------------|-------------------------||
C#|-----------------------------|------------------------*||
G#|-----5--5--5--5g7--5---------|--------------0---------*||
D#|-------------------------2b--|--L--0--2b---------------||

						      4x
F#|---------------------------|--------------------------||-------------------|
C#|*--------------------------|-------------------------*||-------------------|
G#|*--0h--2--2--0--2--0-------|--0h--2--2--0--2--0------*||--5----------------|
D#|---------------------------|--------------------------||-------------------|


F#|-----------------------||
C#|-----------------------||
G#|--3--------2-----------||
D#|--------------0--2--3--||



F#|----------------------------------------|--------------------------|
C#|----------------------------------------|--------------------------|
G#|----------------------------------------|--------------------------|
D#|--5-------------------5-----5-----5--0--|--5-----5-----5-----5--0--|


F#|--------------------------|---------------------------||
C#|--------------------------|--------------------------*||
G#|--------------------------|--------------------------*||
D#|--5-----5-----5-----5--0--|--5-----5-----5-----5--0---||


F#|------------------------|------------------------|--------------------------|
C#|------------------------|------------------------|--------------------------|
G#|--5----------5--5-------|--5----------3--3-------|--------------------------|
D#|------------------------|------------------------|--5-----5-----5-----5--0--|


F#|--------------------------|------------------------|------------------------|
C#|--------------------------|------------------------|------------------------|
G#|--------------------------|--5----------5--5-------|--5----------3--3-------|
D#|--5-----5-----5-----5--0--|------------------------|------------------------|


F#|---------------------------|--------------------------|
C#|*--------------------------|--------------------------|
G#|*--------------------------|--------------------------|
D#|---5-----5-----5-----5--0--|--5-----5-----5-----5--0--|

  						      4x
F#|------------------------|--------------------------||
C#|------------------------|-------------------------*||
G#|--5----------5--5-------|--5----------3-----------*||
D#|------------------------|----------------0--2--3---||



Leave your comments about this lesson