Lenny Kravitz

It Ain't Over 'til It's Over

Lenny Kravitz Bass Tab and Video Lesson

Level: Intermediate

Genre:Alternative Rock

Type of instrument:4 String Bass

NOTES

Learn how to play It Ain't Over 'til It's Over by Lenny Kravitz in Bass Guitar.

G|-----------------------------------------------------------------|
D|-----------------------------------------------------------------|
A|--4------------------------------------------x-4---x-4-----------|
E|-----------------------------------------------------------0-4-6-|


G|-------------------------------|-------------------------------|
D|-------------------------------|-------------------------------|
A|--4--------x-4---x-4-----------|--4--------x-4---0-4-4-6-4-----|
E|-------------------------0-4-6-|---------------------------6-4-|


G|-------------------------------|-------------------------------|
D|-------------------------------|-------------------------------|
A|-------------------------------|--4--4-----x-4---x-4-----------|
E|--2--2-----x-5---5---5-4--4s-5-|-------------------------0-4-6-|


G|-------------------------------|-------------------------------|
D|-------------------------------|-------------------------------|
A|--4--------x-4---x-4-----------|--4--4-----x-4---0-4-4-6-4-----|
E|-------------------------0-4-6-|---------------------------6-4-|


G|-------------------------------||
D|-------------------------------||
A|-------------------------------||
E|--2--2-----x-5---5---5-4--4s-5-||



G|-------------------------------------------------------------------|
D|-------------------------------------------------------------------|
A|--4--------------------------------------4-----x-4---x-4-------4---|
E|-------------------------------------------------------------5---5-|


G|-------------------------------|------------------------------|
D|-------------------------------|------------------------------|
A|--3--------x-3---x-3-------3---|--2--2-----x-2---0-2-2-4-2----|
E|-------------------------5---5-|---------------------------4--|


G|---------------------------------||
D|--------------------------------*||
A|--------------------------------*||
E|--2--2-----x-2---2---2s-4--4s-5--||



G|--------------------------------------------------------------------|
D|--------------------------------------------------------------------|
A|--4---------------------------------------4-----x-4---x-4-----------|
E|--------------------------------------------------------------0-4-6-|


G|-------------------------------|-------------------------------|
D|-------------------------------|-------------------------------|
A|--4--4-----x-4---x-4-----------|--4--4-----x-4---0-4-4-6-4-----|
E|-------------------------0-4-6-|---------------------------6\--|


G|-------------------------------|-------------------------------|
D|-------------------------------|-------------------------------|
A|-------------------------------|--4--4-----x-4---x-4-----------|
E|--2--2-----x-5---5---5-4--4s-5-|-------------------------0-4-6-|


G|-------------------------------|-------------------------------|
D|-------------------------------|-------------------------------|
A|--4--------x-4---x-4-----------|--4--4-----x-4---0-4-4-6-4-----|
E|-------------------------0-4-6-|---------------------------6\--|


G|-------------------------------||
D|-------------------------------||
A|-------------------------------||
E|--2--2-----x-5---5---5-4--4s-5-||



G|-------------------------------------------------------------------|
D|-------------------------------------------------------------------|
A|--4--------------------------------------4-----x-4---x-4-------4---|
E|-------------------------------------------------------------5---5-|


G|-------------------------------|------------------------------|
D|-------------------------------|------------------------------|
A|--3--------x-3---x-3-------3---|--2--2-----x-2---0-2-2-4-2----|
E|-------------------------5---5-|---------------------------4--|


G|--------------------------------|------------------------------|
D|--------------------------------|-----------------6-6-6-6------|
A|--------------------------------|--4--4-----x-4-------------4--|
E|--2--2-----x-2---2---2s-4--4s-5-|------------------------------|


G|------------------------------|------------------------------|
D|-----------------6-6-6-6------|------------------------------|
A|--3--3-----x-3-------------3--|--2--2-----x-2---0-2-2-4-2----|
E|------------------------------|---------------------------4--|


G|--------------------------------||
D|--------------------------------||
A|--------------------------------||
E|--2--2-----x-2---2---2s-4--4s-5-||



G|--------------------------------------------------------------------|
D|--------------------------------------------------------------------|
A|--4---------------------------------------4-----x-4---x-4-----------|
E|--------------------------------------------------------------0-4-6-|


G|-------------------------------|-------------------------------|
D|-------------------------------|-------------------------------|
A|--4--4-----x-4---x-4-----------|--4--4-----x-4---0-4-4-6-4-----|
E|-------------------------0-4-6-|---------------------------6\--|


G|-------------------------------|-------------------------------|
D|-------------------------------|-------------------------------|
A|-------------------------------|--4--4-----x-4---x-4-----------|
E|--2--2-----x-5---5---5-4--4s-5-|-------------------------0-4-6-|


G|-------------------------------|-------------------------------|
D|-------------------------------|-------------------------------|
A|--4--4-----x-4---x-4-----------|--4--4-----x-4---0-4-4-6-4-----|
E|-------------------------0-4-6-|---------------------------6\--|


G|-------------------------------||
D|-------------------------------||
A|-------------------------------||
E|--2--2-----x-5---5---5-4--4s-5-||



G|-----------------------------------------------------------------------|
D|-----------------------------------------------------------------------|
A|-----------------------------------------------------------------------|
E|--5------------------------------------------5-----x-5---5---5---0-5-5-|


G|-------------------------------|-------------------------------|
D|-------------------------------|-------------------------------|
A|-------------------------------|-------------------------------|
E|--7--7-----x-7---7---7---7-7\--|--2--2-----x-2---2---2---0-2-2-|


G|-----------------------------|-----------------------------|
D|-----------------------------|-----------------7-7-7-7-----|
A|-----------------------------|--------4-5--7---------------|
E|--4--4-----x-4---4---4-2--4--|--5--5--------------------5--|


G|------------------------------|-------------------------------|
D|------------------9-9-9-9-----|-------------------------------|
A|-------6-L-7--9---------------|-------------------------------|
E|--7--7---------------------7--|--2--2-----x-2---2---2---0-2-2-|


G|--------------------------|--------------------------|
D|--------------------------|--------------------------|
A|--------------------------|--------------------------|
E|--4-----4-----4-----4-----|--4-----4-----4-----4-----|


G|----------------------------------------------||
D|----------------------------------------------||
A|----------------------------------------------||
E|--9s-21--L\-x-21---L\-0-9s-21--L\-x-21---L\-0-||



G|-----------------------------------------------------------|
D|-----------------------------------------------------------|
A|-----------------------------------------/16--16-16\--12\--|
E|-----------------------------------------------------------|


G|-------6------------------------|-------6------------------------|
D|--------------------------------|--------------------------------|
A|--4---------x-4---x-4-----------|--4---------x-4---x-4-----------|
E|--------------------------0-4-6-|--------------------------0-4-6-|


G|-------6------------------------|-------------------------------|
D|--------------------------------|-------------------------------|
A|--4---------x-4---0-4-4-6-4-----|-------------------------------|
E|----------------------------6-4-|--2--2-----x-5---5---5-4--4s-5-|


G|-----------------------8s-6------|------------------------------|
D|----------3---4---5---------8s-6-|------------------------------|
A|--4--4---------------------------|--4--4-----x-4---0-4-4-6-4----|
E|---------------------------------|---------------------------6--|


G|------------------------------|-------------------------------||
D|------------------------------|-------------------------------||
A|--4--4-----x-4----------------|-------------------------------||
E|-----------------1---2---2-4--|--2--2-----x-5---5---5-4--4s-5-||



Leave your comments about this lesson