Level 42

Something About You

Something About You by Level 42 Bass Tab and Video Lesson

Level: Intermediate

Genre:Jazz

Instrument:5 String Bass

NOTES

How to play Something About You by Level 42 in Bass Guitar.

    S                                      S    S  S  S  S   
G|----------------------------------------------------------|
D|----------------------------------------------------------|
A|-------------------------------------------------0--2--3--|
E|--0--------------------------------------2----4-----------|
B|----------------------------------------------------------|


      S  S  S  S  S              S  S  S  S  S          
G|--------------------------|--------------------------|
D|--------------------------|--------------------------|
A|----3p-0------------------|----5p-2--0---------------|
E|----------3--0------------|-------------2------------|
B|----------------1---------|----------------3---------|


    S  S  S S  S S     S        S    S    S  S  S  S       S S  S  S  S           
G|---------------------------|------------------------|--------------------------|
D|---------------------------|------------------------|--------------------------|
A|---------------------------|---------------0--2--3--|----3-0-------------------|
E|--x--0--x-0--x-0----12\----|--0----2----4-----------|---------3--0-------------|
B|---------------------------|------------------------|---------------1----------|


      S S  S  S  S            
G|--------------------------||
D|--------------------------||
A|----5-2--0----------------||
E|------------2-------------||
B|---------------3----------||



G|-------------------------------------------------------------------|
D|-------------------------------------------------------------------|
A|--7--------------------------------------7--7---x-7-7-7--------7-6-|
E|-------------------------------------------------------------------|
B|-------------------------------------------------------------------|


G|-----------------------------|-----------------------------|
D|-----------------------------|-----------------------------|
A|--4-4--4---x-4-4---------0-4-|--5-5--5---x-5-5---------5-4-|
E|-----------------------------|-----------------------------|
-----------------------------|-----------------------------|


G|-----------------------------||------------------------------|
D|-----------------------------||*-----------------------------|
A|--2-2--2---x-2-2---------5-6-||---7-7--7---x-7-7---------7-6-|
E|-----------------------------||*-----------------------------|
B|-----------------------------||------------------------------|


G|-----------------------------|-----------------------------|
D|-----------------------------|-----------------------------|
A|--4-4--4---x-4-4---------0-4-|--5-5--5---x-5-5---------5-4-|
E|-----------------------------|-----------------------------|
B|-----------------------------|-----------------------------|

                                3x
G|------------------------------||---------------------------||
D|-----------------------------*||---------------------------||
A|--2-2--2---x-2-2---------5-6--||---------------------------||
E|-----------------------------*||--0--0----0--x-0----12\----||
B|------------------------------||---------------------------||



    S                                         S    S  S  S  S   
G|-------------------------------------------------------------|
D|-------------------------------------------------------------|
A|----------------------------------------------------0--2--3--|
E|--0-----------------------------------------2----4-----------|
B|-------------------------------------------------------------|


      S  S  S  S  S              S  S  S  S  S          
G|--------------------------|--------------------------|
D|--------------------------|--------------------------|
A|----3p-0------------------|----5p-2--0---------------|
E|----------3--0------------|-------------2------------|
B|----------------1---------|----------------3---------|


    S  S  S S  S S      S        S    S    S  S  S  S   
G|----------------------------|------------------------|
D|----------------------------|------------------------|
A|----------------------------|---------------0--2--3--|
E|--x--0--x-0--x-0-----12\----|--0----2----4-----------|
B|----------------------------|------------------------|


      S S  S  S  S               S S  S  S  S           
G|--------------------------|--------------------------|
D|--------------------------|--------------------------|
A|----3-0-------------------|----5-2--0----------------|
E|---------3--0-------------|------------2-------------|
B|---------------1----------|---------------3----------|


    S  S  S S  S S      S        S    S    S  S  S  S   
G|----------------------------|------------------------|
D|---------------------14~----|------------------------|
A|----------------------------|---------------0--2--3--|
E|--x--0--x-0--x-0------------|--0----2----4-----------|
B|----------------------------|------------------------|


      S  S  S  S  S              S  S  S  S  S          
G|--------------------------|--------------------------|
D|--------------------------|--------------------------|
A|----3p-0------------------|----5p-2--0---------------|
E|----------3--0------------|-------------2------------|
B|----------------1---------|----------------3---------|


    S  S  S S  S S      S        S    S    S  S  S  S   
G|----------------------------|------------------------|
D|----------------------------|------------------------|
A|----------------------------|---------------0--2--3--|
E|--x--0--x-0--x-0-----12\----|--0----2----4-----------|
B|----------------------------|------------------------|


      S S  S  S  S               S S  S  S  S            
G|--------------------------|--------------------------||
D|--------------------------|--------------------------||
A|----3-0-------------------|----5-2--0----------------||
E|---------3--0-------------|------------2-------------||
B|---------------1----------|---------------3----------||



    S                                         S    S  S  S  S   
G|-------------------------------------------------------------|
D|-------------------------------------------------------------|
A|----------------------------------------------------0--2--3--|
E|--0-----------------------------------------2----4-----------|
B|-------------------------------------------------------------|


G|---------------------|-------------------|--------------------------|
D|---------------------|-------------------|--------------/14---------|
A|--3------------------|-------------------|--------------------------|
E|---------------------|-------------------|-------------------12\----|
B|---------------------|-------------------|--------------------------|


    S    S    S  S  S  S                                             
G|------------------------|---------------------|-------------------|
D|------------------------|---------------------|-------------------|
A|---------------0--2--3--|--3------------------|-------------------|
E|--0----2----4-----------|---------------------|-------------------|
B|------------------------|---------------------|-------------------|


                  S        S    S    S  S  S  S       S  S  S  S  S          
G|----------------------|------------------------|--------------------------|
D|---------------14~----|------------------------|--------------------------|
A|----------------------|---------------0--2--3--|----3p-0------------------|
E|----------------------|--0----2----4-----------|----------3--0------------|
B|----------------------|------------------------|----------------1---------|


      S  S  S  S  S            S  S  S S  S S      S      
G|--------------------------|----------------------------|
D|--------------------------|----------------------------|
A|----5p-2--0---------------|----------------------------|
E|-------------2------------|--x--0--x-0--x-0-----12\----|
B|----------------3---------|----------------------------|


    S    S    S  S  S  S       S S  S  S  S               S S  S  S  S           
G|------------------------|--------------------------|--------------------------|
D|------------------------|--------------------------|--------------------------|
A|---------------0--2--3--|----3-0-------------------|----5-2--0----------------|
E|--0----2----4-----------|---------3--0-------------|------------2-------------|
B|------------------------|---------------1----------|---------------3----------|


   S  S  S S  S S      S       
G|----------------------------||
D|----------------------------||
A|----------------------------||
E|--x--0--x-0--x-0-----12\----||
B|----------------------------||



Guitar Solo

    S                                            S    S            
G|----------------------------------------------------------------|
D|----------------------------------------------------------------|
A|----------------------------------------------------------------|
E|--0--------------------------------------------2----4--2--0--3--|
B|----------------------------------------------------------------|


G|---------------------|---------------------|----------------------|
D|---------------------|---------------------|----------------------|
A|---------------------|---------------------|----------------------|
E|---------------3--2--|---------------2--0--|---------------12\----|
B|---------------------|---------------------|----------------------|


    S    S    S                                                        
G|------------------------|---------------------|---------------------|
D|------------------------|---------------------|---------------------|
A|------------------------|---------------------|---------------------|
E|--0----2----4--2--0--3--|---------------3--2--|---------------2--0--|
B|------------------------|---------------------|---------------------|


                      P     S    S    S  S  S  S       S  S  S  S  S          
G|-------------------13--|------------------------|--------------------------|
D|---------------2/------|------------------------|--------------------------|
A|-----------------------|---------------0--2--3--|----3p-0------------------|
E|-----------------------|--0----2----4-----------|----------3--0------------|
B|-----------------------|------------------------|----------------1---------|


      S  S  S  S  S            S  S  S S  S S      S       
G|--------------------------|----------------------------||
D|--------------------------|----------------------------||
A|----5p-2--0---------------|----------------------------||
E|-------------2------------|--x--0--x-0--x-0-----12\----||
B|----------------3---------|----------------------------||



Leave your comments about this lesson