Marillion

Lavender

Marillion Bass Tab and Video Lesson

Level: Easy

Genre:Rock

Type of instrument:4 String Bass

NOTES

How to play Lavender by Marillion in Bass Guitar.

G|--------------------|--16----------------|--------------------|
D|--14----------------|--------------------|--14----------------|
A|--------------------|--------------------|--------------------|
E|--------------------|--------------------|--------------------|

G|--------------------|
D|--------------------|
A|--12----------------|
E|--------------------|



G|----------------------|----------------------|----------------------|
D|-------14-------------|-------12-------------|-------11-------------|
A|----------------------|----------------------|----------------------|
E|----------------------|----------------------|----------------------|

G|----------------------------|-------------------------|------------------------|
D|----------------------------|--14------14-------------|---------12-------------|
A|-------12-----------12--14--|------14-----------------|-----12-----------------|
E|----------------12----------|-------------------------|------------------------|

G|--------------------------|-----------------------------------------------|
D|---------11---------11----|--------------------------------11-------------|
A|-----11-------------------|--12-12-12-12-12-12-12-12-12-14----12-11-9-----|
E|--------------------------|-------------------------------------------7-9-|

G|-------|
D|-------|
A|--7----|
E|-------|



G|------------------------|------------------------|--------------------------|
D|------------------------|------------------------|--------------------------|
A|--7----7-----7--7--7----|--5----5-----5--5--5----|--4----4-----4--4--4--6-7-|
E|-----------7------------|-----------5------------|-----------4--------------|

G|----------------------------|---------------------------|
D|-------------7-7-----7---7--|---------------------------|
A|-----------7-------7---7----|--7----7-----7--7--7-7-7-7-|
E|--5-------------------------|-----------7---------------|

G|------------------------|--------------------------|---------------------------|
D|------------------------|--------------------------|--7----7-----7--7--9-7-6---|
A|--5----5-----5--5--5----|--4----4-----4--4--4-6-7--|-----------7-------------9-|
E|-----------5------------|-----------4--------------|---------------------------|

G|---------------------------|--------------------------|
D|---------------------------|--------------------------|
A|--7----7-----7-----------4-|--5----5-----5-5----5-5---|
E|-----------7----0--L-2-4---|-----------5------5-------|

G|--------------------------|---------------------------|
D|--------------------------|--7----7-----7-7-7--7-6----|
A|--4----4-----4--4--4--6-7-|-----------7------------9--|
E|-----------4--------------|---------------------------|

G|--------------------------|-----------------------------|
D|--------------------------|----------------------7s-12--|
A|--7----7-----7--7--7------|--5----5-----5-5----5--------|
E|-----------7---------0--5-|-----------5------5----------|

G|--------------------------|--------------------------|
D|-------------7------------|-------7-----7-----7--6---|
A|--4----4---4----4--4--4---|-----------7-----7------9-|
E|------------------------7-|--5-----------------------|

G|---------------------------|--------------------------|
D|---------------------------|--------------------------|
A|--7----7-----7-----------4-|--5----5-----5-5----5-5---|
E|-----------7----0--0-4-5---|-----------5------5-------|

G|--------------------------|---------------------------|
D|--------------------------|--7----7-----7-7-7--7-6----|
A|--4----4-----4--4--4--6-7-|-----------7------------9--|
E|-----------4--------------|---------------------------|

G|---------------------------|-----------------------------|
D|---------------------------|----------------------7s-12--|
A|--7----7-----7--7--7-----4-|--5----5-----5-5----5--------|
E|-----------7---------4-5---|-----------5------5----------|

G|--------------------------|-------------------------|-------|
D|-------------7------------|-------7-----7----7--6---|-------|
A|--4----4---4----4--4--4---|-----------7-----------9-|--7----|
E|------------------------7-|--5----------------------|-------|



G|---------------------------|--------------------7-7---|
D|-------------9--7--6-------|---------------6h-7-------|
A|--7----7---7---------7---4-|--5----5----5-------------|
E|-----------------------7---|--------------------------|

G|---------------------------|------------------------6--|
D|--------------6--4---------|-------------7-7-7--7-9----|
A|--4---4-4---4-------7--4---|-----------7---------------|
E|-------------------------7-|--5----5-------------------|

G|---------------------------|---------------------------|
D|-------------9--7--6-------|----------------7-12\------|
A|--7----7---7---------7---4-|--5----5----5----------5-5-|
E|-----------------------7---|---------------------------|

G|---------------------------|--------------------------|
D|--------------6--4---------|-------------7--7--7--6---|
A|--4---4-4---4-------7--4---|-----------7------------9-|
E|-------------------------7-|--5----5------------------|

G|---------------------------|--------------------7-7---|
D|-------------9--7--6-------|---------------6h-7-------|
A|--7----7---7---------7---4-|--5----5----5-------------|
E|-----------------------7---|--------------------------|

G|---------------------------|-------------------------|
D|--------------6--4---------|-------------7--7--7-----|
A|--4---4-4---4-------7--4---|-----------7----------4--|
E|-------------------------7-|--5----5-----------------|

G|---------------------------|----7-7-7-7------7--7-7------|
D|-------------9--7--6-------|-----------------------------|
A|--7----7---7---------7---4-|--5------------5---------5-5-|
E|-----------------------7---|-----------------------------|

G|---------------------------|---------------------------|-------------------|
D|--------------6--4---------|--------7---7-------7--6---|-------------------|
A|--4---4-4---4-------7--4---|------7---7--------------9-|--7----------------|
E|-------------------------7-|--5------------5-----------|-------------------|



Leave your comments about this lesson