Marvin Gaye

Aint No Mountain High Enough

Aint No Mountain High Enough by Marvin Gaye Bass Tab and Video Lesson

Level: Easy

Genre:R&B

Instrument:4 String Bass

NOTES

How to play Aint No Mountain High Enough by Marvin Gaye in Bass Guitar.

G|---------------------|---------------------|------------------------|
D|--7------------7--6--|--L--------6------6--|--5------5--4--------2--|
A|---------------------|---------------------|---------------2--2-----|
E|---------------------|---------------------|------------------------|

G|-----------------------|
D|--L-------4----5----6--|
A|-----------------------|
E|-----------------------|



Verse 1 and 2

G|---------------------|--L------------------|------------------------|
D|--7------------7--6--|--6--------6------6--|--5------5--4--------2--|
A|---------------------|---------------------|---------------2--2-----|
E|---------------------|---------------------|------------------------|

G|-----------------------|-----------------------|-------------------------|
D|--L-------4----5----6--|--7--------L-----7--6--|--L-------6-----6-----6--|
A|-----------------------|-----------------------|-------------------------|
E|-----------------------|--------------5--------|-------------------------|

G|------------------------|------------------------|-----------------------|
D|--5------5--4--------2--|--L--2--2--4----5----6--|--7--------L-----7--6--|
A|---------------2--2-----|------------------------|-----------------------|
E|------------------------|------------------------|--------------5--------|

G|--------------------------|------------------------|-----------------------|
D|-----6-----6-----6-----6--|--5------5--4--------2--|--L-------4------------|
A|--------------------------|---------------2--2-----|-----------------------|
E|--------------------------|------------------------|-----------------2--5--|



Chorus 1 and 2

G|------------------------|--------------------------|------------------------|
D|------------------------|-----------------------4--|--5-----5-----2------3--|
A|-------2----------------|-----------------5--7-----|-----5-----5------------|
E|--3-------3--0----0--2--|-----5--6--7--------------|------------------------|

G|--------------------------|----------------------|-----2--3--4--------------|
D|--4--------------------4--|--5------4--2------3--|--4--------------------1--|
A|-----------1--2--5--7-----|----------------------|-----------------2--4-----|
E|-----2--4-----------------|----------------------|--------------------------|

G|--------------------------|--------------------------|
D|--2-----2-----2--2--4--5--|--L-----5-----5-----5--6--|
A|-----2-----2--------------|-----5-----5-----5--------|
E|--------------------------|--------------------------|



G|--------------------------|--------------------------|
D|--------------7--7--7--7--|--------------------------|
A|-----------7--------------|--------------------------|
E|--5--5--5-----------------|--5--5--5--5--5--5--5--5--|

G|--------------------------|--------------------------|------------------------|
D|--------------------------|--------------------------|----------4-------4-----|
A|--------------------------|--------------------------|-------4-------4-----1--|
E|--5--5--5--5--5--5--5--5--|--3--3--3--3--3--3--3--3--|--2---------------------|

G|----------4-------4-----|------------------------|-------------------------|
D|-------4-------4-----5--|----------5-------2-----|-------------5-----------|
A|--2---------------------|-------5-------5-----5--|----------5--------------|
E|------------------------|--3---------------------|--3----------------3--4--|

G|-------------------------|--------------------------|--------------------------|
D|--------7--7----------7--|--L--2--------------------|--------------------------|
A|-----------------7-------|--------------------------|--------------------------|
E|--5--5-------------------|--------5--5--5--5--5--5--|--6--6--6--6--6--6--6--6--|

G|--------------------------|
D|--------------------------|
A|--------------------------|
E|--6--6--6--6--6--6--6--6--|



G|-----------------------|-------------------------|------------------------|
D|--8--------L-----8--7--|--L-------7-----7-----7--|--6------6--5--------3--|
A|-----------------------|-------------------------|---------------3--3-----|
E|--------------6--------|-------------------------|------------------------|

G|------------------------|-----------------------|--------------------------|
D|--L-----3--5----6----7--|--8--------L-----8--7--|-----7-----7-----7-----7--|
A|------------------------|-----------------------|--------------------------|
E|-----1------------------|--------------6--------|--------------------------|

G|------------------------|-----------------------|
D|--6------6--5--------3--|--L-------4--5---------|
A|---------------3--3-----|-----------------------|
E|------------------------|------------------3----|



G|-----------------------|--------------------------|------------------------|
D|-----------------------|--------------------------|-----------3---------4--|
A|-------3---------------|-----1--2--3-----3--1-----|-----3--6---------------|
E|--4-------0--1------2--|--3--------------------3--|--4---------------------|

G|-------3--5----5--3-----|-----------------------|------------------------|
D|--5------------------5--|--6----6--5--3------4--|--5---------------------|
A|------------------------|-----------------------|--------0--2--3----3----|
E|------------------------|-----------------------|-----3------------------|

G|--------------------------|--------------------------|
D|--3-----3-----3--3--5--6--|--L-----6-----6-----6-----|
A|-----3-----3--------------|-----6-----6-----6-----6--|
E|--------------------------|--------------------------|



Leave your comments about this lesson