Marvin Gaye

What's Going On

What's Going On by Marvin Gaye Bass Tab and Video Lesson

Level: Intermediate

Genre:R&B

Instrument:4 String Bass

NOTES

How to play What's Going On by Marvin Gaye in Bass Guitar.

G|--------------------------------------------|-------------------------|
D|--------------------------------------------|-------------------2-----|
A|------------------------------2-L--4--2--4--|-----------2-L--4-----4--|
E|--0-----------------------L-----------------|--0----L-----------------|

G|-------------------------|--------------------------|
D|-------------------------|--------------------------|
A|-----------2-L--4--2--4--|---------------4--4-2--4--|
E|--0----L-----------------|--0----L---4--------------|



G|-------------------------------------------------|------------1----------1--|
D|-------------------------------------------2-----|--2--2--L-----2---4-L-----|
A|-----------------------------------2-L--4-----4--|--------------------------|
E|--0-------------------------0--L-----------------|--------------------------|

G|--------------------------|-----------------------|-------------------------|
D|--------------------------|--------------------1--|-------------------2-----|
A|--4----L---4-L-2----2--3--|--4--------4---4-L-----|-----------2-L--4-----4--|
E|-----------------4--------|-----------------------|--0----L-----------------|

G|---------------1-L--4--|--6------------------|---------------------------|
D|-----------2-----------|------------------6--|---------------------------|
A|-----------------------|---------------------|--4---4-----2-2--4--4-2----|
E|--0--------------------|---------------------|--------4---------------4--|

G|--------------------------|-------------------------|-----------------------2--|
D|---------------2---4-2----|--4----4-----------------|-----------1-L-2----4-----|
A|-----------------4-----4--|-----------4-----4-L--3--|--2----L------------------|
E|--2--2------L-------------|-------------2-----------|--------------------------|

G|--4-2----4-2-----------------|
D|------4------4--------2------|
A|----------------2--4----4-2--|
E|-----------------------------|



Pre-Chorus

G|---------------------------------------------------|
D|---------------------------------------------------|
A|-------------------------------------0-L--0--4--3--|
E|--2---------------------------2--L-----------------|

G|----------------------------|--------------------------|
D|----------------------------|--------------------------|
A|--2-2-2-2-0---0-----0-----0-|-----------------0--4--3--|
E|----------------4-----4-----|--2--2--L---2-L-----------|

G|------------------------4---|--------------------------|
D|-------------1-L-2---4----4-|--4--4--L-----------------|
A|--2--2--L--x----------------|------------4-----4-L--3--|
E|----------------------------|--------------2-----------|

G|-----------------------|
D|--------------------1--|
A|--2--------2---4-L-----|
E|-----------------------|



G|------------------------------------1--|------------------------|
D|--2------------------------2---4-L-----|------------------------|
A|---------------------------------------|--4--4---------4--2--4--|
E|---------------------------------------|------------4-----------|

G|--------------------1--|--------------------------|-----|
D|-----------2---4-L-----|--------------------------|-----|
A|-----------------------|--4-----------4-4-3-3-2-2-|-----|
E|--0--------------------|--------------------------|-----|



G|-------------------------------------------------|------------1----------1--|
D|-------------------------------------------2-----|--2--2--L-----2---4-L-----|
A|-----------------------------------2-L--4-----4--|--------------------------|
E|--0-------------------------0--L-----------------|--------------------------|

G|----------------------------|-----------------------|-------------------------|
D|----------------------------|--------------------1--|--2----L-----------2-----|
A|--4----L--------4----4-2----|--4--------4---4-L-----|-----------2-L--4-----4--|
E|----------4-4-L----4-----4--|-----------------------|-------------------------|

G|---------------1-L--4--|--6----L-----4--5--6-5-4---|--------------------------|
D|-----------2-----------|-----------6-------------6-|--------------------------|
A|-----------------------|---------------------------|--4---------4-4---2-L-----|
E|--0--------------------|---------------------------|------4-4--------------4--|

G|--------------------------|-------------------------|
D|---------------2---4-2----|--4----4-----------------|
A|-----------------4-----4--|-----------4-----4-L--3--|
E|--2--2------L-------------|-------------2-----------|

G|-----------------------2-3-|--4-2-----------------------|
D|-----------1-L-2----4------|------4---------------------|
A|--2----L-------------------|---------2----2--2--0-------|
E|---------------------------|----------------------4-2-4-|



Intermezzo

G|----------------------------------------------------|
D|-----------------------------------------7----7-----|
A|-------------------------------------7-L----7----7--|
E|--5---------------------------5--L------------------|

G|--------------------------|----------------------------|
D|--------------7-----7-----|----------------7-----7-----|
A|------------7-----7----7--|------------7-7-----7----7--|
E|--5--5--L-----------------|--5--5--L-------------------|

G|----------------------------|----------------------------|
D|----------------7-----7-----|----------------7-----7-----|
A|------------7-7-----7----7--|------------7-7-----7----7--|
E|--5--5--L-------------------|--5--5--L-------------------|

G|------------------------------|-----------------------------|
D|----------------7-----7---7---|----------------7-----7------|
A|------------7-7-----7---7---7-|------------7-7-----7---7-7--|
E|--5--5--L---------------------|--5--5--L--------------------|

G|-----------------------------|--------------------------|
D|----------------7-----7------|-----------------------7--|
A|------------7-7-----7---7-7--|-----------6--L-7---9-----|
E|--5--5--L--------------------|--7--7--L-----------------|

G|-----------------------------|----------------------------|
D|--9---9----------------------|-------------------------7--|
A|--------6-6--7-L--8--9-9-----|------6-6-6--7-L-7--7-9-----|
E|-------------------------9-9-|--7-------------------------|

G|--------------------------------|
D|--9-7----9-7----9-7-------------|
A|------9------9------9-------6---|
E|-----------------------7h-9---9-|



Leave your comments about this lesson