Michael Buble

Haven't Met You Yet

Haven't Met You Yet by Michael Buble Bass Tab and Video Lesson

Level: Intermediate

Genre:Jazz

Instrument:4 String Bass

NOTES

How to play Haven't Met You Yet by Michael Buble in Bass Guitar.

F|-----------------------------------------------------------------| 
C|---------------------------------------------------------7-4---5-| 
G|--5--------------------------------------------------------------| 
D|-----------------------------------------------------------------| 

F|-----------------------|-----------------------|-------------------------| 
C|---------------5-4-----|---------------5-7---9-|-----------7-----4------*| 
G|---------------------7-|-----------------------|-------------------7----*| 
D|-----------------------|-----------------------|-------------------------| 



F|----------------------------------------------------|---------------------| 
C|----------------------------------------------------|---------------------| 
G|----------------------------------------------------|--5------------------| 
D|--------------------------------------------------5-|---------------------| 

F|-------------------|--------------------|----------------------| 
C|-------------------|--------------------|----------------------| 
G|-------------------|--------------------|---------------6-L----| 
D|-------------------|--0-----------------|----------------------| 

F|------------------------|-------------------------|------------------------| 
C|------------------------|-------------------------|------------------------| 
G|--7--------x------7---x-|--9--------x-------9---x-|--7--------x------7---x-| 
D|-------------7----------|-------------10----------|-------------7----------| 

F|-------------------------|------------------------|-------------------------| 
C|-------------7-----9\----|------------------------|-------------------------| 
G|-----------7-----7-------|--7--------x------7---x-|--9--------x-------9---x-| 
D|--5----------------------|-------------7----------|-------------10----------| 

F|------------------------|-----------------------|----------------------| 
C|--5--------x------5---x-|--7-----7-----7--------|----------------------| 
G|-------------5----------|-----------------------|-------2---------7----| 
D|------------------------|-----------------------|--3---------5---------| 



F|-----------------------------------------------------------------| 
C|-------------------------------------------------/9----7----4----| 
G|--5--------------------------------------------------------------| 
D|-----------------------------------------------------------------| 

F|----------------------|----------------------|-----------------------| 
C|----------------------|----------------------|-----------------------| 
G|-------2--------------|-------4----5---------|------2-----------1----| 
D|--3---------5----6----|--7--------------7----|--0-----0----2---------| 

F|----------------------|---------------------|-------------------| 
C|----------------------|---------------------|-------------------| 
G|--2----4----0----5----|-------2----5--------|-------------------| 
D|----------------------|--3------------------|--5----------------| 



F|----------------------------------------------------------------| 
C|--9-------------------------------------------------9-----9-----| 
G|--------------------------------------------------------9-----9-| 
D|----------------------------------------------------------------| 

F|------------------------|------------------------|----------------------| 
C|--8---------------8-----|--7---------------7-----|--6---------6----4----| 
G|----------------9-----9-|----------------9-----9-|----------------------| 
D|------------------------|------------------------|----------------------| 

F|----------------------|----------------------|----------------------| 
C|----------------------|----------------------|----------------------| 
G|-----------------2----|-----------------5----|------------2----5----| 
D|--0---------3---------|--2---------5---------|--3-------------------| 

F|--------------------|--------------------|--------------------| 
C|--------------------|--------------------|--------------------| 
G|--------------------|--------------------|--------------------| 
D|--5--------5--------|--5--------5--------|--5--------7--------| 



F|------------------------------------------------------------| 
C|--------------------------------------------------5----6----| 
G|--7------------------------------------------9--------------| 
D|------------------------------------------------------------| 

F|-----------------------|----------------------|----------------------| 
C|--7---x----------------|----------------------|----------------------| 
G|------------------3----|--4----6----7----4----|-----------------3----| 
D|--------5----7---------|----------------------|--5----5----4---------| 

                                                             |--3--|  |--3--|     
F|----------------------|----------------------|-------------------------------| 
C|----------------------|------------2----7----|--9---x------------------------| 
G|--4---------2---------|--0----4--------------|-------------------------------| 
D|-------4---------0----|----------------------|--------7----7--9--7--9--7--9--| 



Intermezzo

F|-----------------------------------------------------------------------| 
C|--4--------------------------------------------------------------4-----| 
G|---------------------------------------------------------------4-----4-| 
D|-----------------------------------------------------------------------| 

                     |--3--|                              
F|----------------------------|-------------------------| 
C|--6----------------6--7--9--|--4----------------4-----| 
G|-----------------7----------|-----------------4-----4-| 
D|----------------------------|-------------------------| 

F|-------------------------|----------------------|-----------------------| 
C|-------------------------|----------------------|--6--------x------6----| 
G|-----------------------7-|--9--------------9----|-------------7---------| 
D|--7--------------7-9-----|------------9---------|-----------------------| 

                                       |--3--|  |--3--|                          
F|-----------------------|-------------------------------|--------------------| 
C|--7--------x------7----|--9--------9-9--6-----6--------|--------------------| 
G|-------------7---------|-------------------9-----9--6--|--------------------| 
D|-----------------------|-------------------------------|--7\----------------| 



Intermezzo Slow

F|-----------------------------------------------------------------------| 
C|--4--------------------------------------------------------------4-----| 
G|---------------------------------------------------------------4-----4-| 
D|-----------------------------------------------------------------------| 

                     |--3--|                              
F|----------------------------|-------------------------| 
C|--6----------------6--7--9--|--4----------------4-----| 
G|-----------------7----------|-----------------4-----4-| 
D|----------------------------|-------------------------| 

F|-------------------------|----------------------|-----------------------| 
C|-------------------------|----------------------|--6--------x------6----| 
G|-----------------------7-|--9--------------9----|-------------7---------| 
D|--7--------------7-9-----|------------9---------|-----------------------| 

                                       |--3--|  |--3--|                          
F|-----------------------|-------------------------------|--------------------| 
C|--7--------x------7----|--9--------9-9--6-----6--------|--------------------| 
G|-------------7---------|-------------------9-----9--6--|--------------------| 
D|-----------------------|-------------------------------|--7\----------------| 



F|-------------------------------------------------------| 
C|-------------------------------------------------2/----| 
G|-------------------------------------------------------| 
D|-------------------------------------------------------| 

F|----------------------|-----------------------|----------------------| 
C|--7----7----7----7----|--9----9----9----9-----|--9----9----9----9----| 
G|----------------------|---------------------9-|----------------------| 
D|----------------------|-----------------------|----------------------| 

F|----------------------|------------------------|----------------------| 
C|----------------------|-------/11----9----6----|----------------------| 
G|-------4---------9----|--7---------------------|-------4--------------| 
D|--5---------7---------|------------------------|--5---------7----8----| 

F|----------------------|----------------------|----------------------| 
C|----------------------|----------------------|-----------------2----| 
G|-------6----7---------|-----------------3----|--4----6----2---------| 
D|--9--------------9----|--5----5----4---------|----------------------| 

F|---------------------|-------------------| 
C|---------------------|-------------------| 
G|-------4----7--------|-------------------| 
D|--5------------------|--7----------------| 



F|------------------------------------------------------------------| 
C|----------------------------------------------------------9-6---7-| 
G|------------------------------------------------------------------| 
D|--0---------------------------------------------------------------| 

     |---3---|                                                    
F|--------------/13---9-L-----------|------------------------| 
C|------11--14--------------7-6-----|---------------7-9---11-| 
G|--12----------------------------9-|------------------------| 
D|----------------------------------|------------------------| 

F|------------------------||--------------------------|-----------------------| 
C|-----------9-----6------||*-------------------------|-----------------------| 
G|-------------------9----||*-----------------2-----0-|---------------0-------| 
D|------------------------||---0----------------4-----|-----------------4---2-| 

F|-----------------------|-------------------------||-------------------------| 
C|-----------------------|------------------------*||-------------------------| 
G|---------------0-2---4-|-----------2------------*||-----------------2-----0-| 
D|-----------------------|-----------------4-2-----||--0----------------4-----| 

     |---3---|                                                
F|--------------/13---9-L-----------|-----------------------| 
C|------11--14----------------------|-----------------------| 
G|--12----------------------0-------|---------------0-2---4-| 
D|----------------------------4---2-|-----------------------| 

F|------------------------|-------------------| 
C|------------------------|-------------------| 
G|-----------2------------|-------------------| 
D|-----------------4-2----|--0----------------| 



Final Slow

F|------------------------------------------------------------------| 
C|----------------------------------------------------------9-6---7-| 
G|------------------------------------------------------------------| 
D|--0---------------------------------------------------------------| 

     |---3---|                                                    
F|--------------/13---9-L-----------|------------------------| 
C|------11--14--------------7-6-----|---------------7-9---11-| 
G|--12----------------------------9-|------------------------| 
D|----------------------------------|------------------------| 

F|------------------------||--------------------------|-----------------------| 
C|-----------9-----6------||*-------------------------|-----------------------| 
G|-------------------9----||*-----------------2-----0-|---------------0-------| 
D|------------------------||---0----------------4-----|-----------------4---2-| 

F|-----------------------|-------------------------||-------------------------| 
C|-----------------------|------------------------*||-------------------------| 
G|---------------0-2---4-|-----------2------------*||-----------------2-----0-| 
D|-----------------------|-----------------4-2-----||--0----------------4-----| 

     |---3---|                                                
F|--------------/13---9-L-----------|-----------------------| 
C|------11--14----------------------|-----------------------| 
G|--12----------------------0-------|---------------0-2---4-| 
D|----------------------------4---2-|-----------------------| 

F|------------------------|-------------------| 
C|------------------------|-------------------| 
G|-----------2------------|-------------------| 
D|-----------------4-2----|--0----------------| 



Leave your comments about this lesson