Michael Jackson

Beat It

Beat It by Michael Jackson Bass Tab and Video Lesson

Level: Easy

Genre:R&B

Instrument:4 String Bass

NOTES

Important: To play like studio version, you'll need change the key of strings.

Intro and Chorus

Gb|---------------------||-------------------------|------------------------|
Db|---------------------||*-----------5--2------4--|-----2------------------|
Ab|---------------------||*--------2---------------|--------5----5----------|
Eb|------------------0--||------3------------------|---------------------0--|

Gb|------------------------|-------------------------|
Db|-----------5--2------4--|-----2------------------*|
Ab|--------2---------------|--------5---------------*|
Eb|-----3------------------|---------------------0---|



Gb|-------------------------|-----------------------|
Db|-------------------------|----------------------*|
Ab|-----7--7----7--------7--|--7----7--------------*|
Eb|-------------------------|-----------------------|



Verse and Solo

Gb|-------------------------|---------------------|-------------------------|
Db|-------------------------|---------------------|-------------------------|
Ab|-----7--7----7--------5--|--5----5-------------|-----7--7----7--------5--|
Eb|-------------------------|---------------------|-------------------------|

Gb|---------------------|-------------------------|---------------------|
Db|---------------------|-------------------------|---------------------|
Ab|--5----5-------------|-----3--3----3--------5--|--5----5-------------|
Eb|---------------------|-------------------------|---------------------|

Gb|-------------------------|----------------------|
Db|-------------------------|---------------------*|
Ab|-----7--7----7--------5--|--5----5-------------*|
Eb|-------------------------|----------------------|



Leave your comments about this lesson