Michael Jackson

Heal The World

Heal The World by Michael Jackson Bass Tab and Video Lesson

80 BPM 80 BPM

Level: Intermediate

Genre:R&B

Instrument:Fretless Bass

NOTES

Learn how to play Heal The World by Michael Jackson in Fretless Bass Guitar.

G|-----------------------------------------|------------------------|
D|------------------------------7h-9-7-----|------------------------|
A|----------------------------7------------|----------------------7-|
E|-----------------------------------------|--5----L---5-5----L-----|


G|-----------------------|---------------------|---------------------|
D|--7--------------------|---------------------|---------------------|
A|---------7h-9-7--------|---------------------|--4------4--7--------|
E|-----------------------|--5------5--7--------|---------------------|


G|---------------------|-----------------------|---------------------|
D|---------------------|-----------------------|---------------------|
A|---------------------|--4------4--7----------|---------------------|
E|--5------5--7--------|----------------7-0----|--5------5--7--------|


G|----------------------|---------------------|---------------------|
D|----------------------|---------------------|---------------------|
A|--4--------7------L---|---------------------|--4------4--7--------|
E|--------------------0-|--5------5--7--------|---------------------|


G|----------------------|----------------------|------------------------|
D|----------------------|----------------------|------------------------|
A|--2------L-2-4--------|--5------L-5-4--------|--2------L-2-2------L-2-|
E|----------------------|----------------------|------------------------|


G|---------9------------||
D|-----------9----------||
A|--7----------7--------||
E|----------------------||



Chorus 1 and 2

G|-------------------------------------------------|
D|-------------------------------------------------|
A|-------------------------------------------------|
E|--5-------------------------------L-5-5------7-0-|


G|----------------------------|------------------------|------------------------|
D|---------------------9------|------------------------|-------------7----------|
A|-----------------------9----|--7------L-7------------|-----------7-----7------|
E|--5h-7--7-L---7-7--------7--|-------------0------L-0-|--5------L---------4----|


G|---------------------|----------------------|---------------------|
D|---------------------|----------------------|---------------------|
A|---------2--4--------|--5------L-5-4--------|--2--------/7--------|
E|--2------------------|----------------------|---------------------|


G|-------------------------|-----------------------||
D|----------------------7--|-----------------------||
A|--------------------7----|---------7h-9-7--------||
E|--5------L-5-5----L------|--5--------------------||



G|---------------------------------------|----------------------|
D|---------------------------------------|----------------------|
A|---------------------------------------|----------------------|
E|--3-----------------------L-3-3--------|--5------L-5-5--------|


G|----------------------|----------------------|----------------------|
D|----------------------|----------------------|----------------------|
A|----------------------|----------------------|-------------4--------|
E|--3------L-3-3--------|--5------L-0-5--------|--2------L-2----------|


G|----------------------|-------------4----------|-----------------------||
D|----------------------|-----------4-----4------|-----------------------||
A|--5------L-5-4--------|--2------L---------2----|--7---7-L--7--L--------||
E|----------------------|------------------------|-----------------------||



G|-------------------------------------------|---------------------6------|
D|-------------------------------------------|-----------------------6----|
A|--2-------------------------L-2-2------4---|--2h-4--4-L---4-4--------4--|
E|-----------------------------------------2-|----------------------------|


G|------------------------|-------------4----------|---------------------|
D|--4------L-4------------|-----------4-----4------|---------------------|
A|------------------------|--2------L---------1----|---------4--6--------|
E|-------------2------L-2-|------------------------|--4------------------|


G|----------------------|--------------------|-------------------||
D|----------------------|--------------------|-------------------||
A|--7------L-7-6--------|--4--------9--------|--2----------------||
E|----------------------|--------------------|-------------------||



G|----------------------------------------|---------------------8------|
D|----------------------------------------|-----------------------8----|
A|--4----------------------L-4-4------6---|--4h-6--6-6---6-6--------6--|
E|--------------------------------------4-|----------------------------|


G|------------------------|-----------------------||----------------------|
D|--6------L-6------------|-----------------------||*---------1--3--------|
A|------------------------|--4------L-4-4----3----||*--1------------------|
E|-------------4------L-4-|-----------------------||----------------------|

  								    3x
G|----------------------|--------------------|----------------------||
D|--4------L-4-3--------|--1--------6--------|---------------------*||
A|----------------------|--------------------|--4--------4----3----*||
E|----------------------|--------------------|----------------------||


G|----------------------|----------------------|----------------------|
D|----------------------|----------------------|----------------------|
A|--4------L-4----------|--4------L-4----------|--4------L-4----------|
E|-------------4--------|-------------4--------|-------------4--------|


G|----------------------|----------------------|-----------------------|
D|----------------------|----------------------|-------------6---------|
A|--4------L-4----------|--4------L-4----------|--4------L-4-----------|
E|-------------4--------|-------------4--------|------------------4----|


G|----------------------|----------------------|-----------------------|
D|----------------------|----------------------|-----------------------|
A|--4------L-4----------|--4------L-4----------|--4------L-4-----------|
E|-------------4--------|-------------4--------|-------------4----4----|


G|----------------------|----------------------|-------------------|
D|----------------------|----------------------|-------------------|
A|--4------L-4----------|--4------L-4----------|--4----------------|
E|-------------4--------|-------------4--------|-------------------|


G|-------------------||
D|-------------------||
A|--L----------------||
E|-------------------||



Leave your comments about this lesson