Michael Jackson

Human Nature

Human Nature by Michael Jackson Bass Tab and Video Lesson

Level: Beginner

Genre:R&B

Instrument:4 String Bass

NOTES

How to play Human Nature by Michael Jackson in Bass Guitar.

G|-----------------------------------|---------------------| 
D|--5--------------------7--L--------|--3------2--L--------| 
A|-----------------------------------|---------------------| 
E|-----------------------------------|---------------------| 

G|--------------------|---------------------| 
D|--5--------7--------|--3------2--L--------| 
A|--------------------|---------------------| 
E|--------------------|---------------------| 



G|------------------------------------|-----------------------| 
D|--5--------------------7--L----4----|--5------7--L----2--4--| 
A|------------------------------------|-----------------------| 
E|------------------------------------|-----------------------| 

G|---------------------|----------------------|----------------------| 
D|--5--------7----4----|--5------7----2---4---|--5------7--L----4----| 
A|---------------------|----------------------|----------------------| 
E|---------------------|----------------------|----------------------| 

G|----------------------|--------------------|-----------2--------| 
D|--5--------7----2--4--|--5--------4--------|--2-----------------| 
A|----------------------|--------------------|--------------------| 
E|----------------------|--------------------|--------------------| 



G|------------------------------------------|----------------------| 
D|--5---------------------------7-----------|----------------------| 
A|------------------------------------------|--5----4----2----0----| 
E|------------------------------------------|----------------------| 

G|-----------------------|--------------4-----------|---------------------| 
D|--5--------4-----------|-----2--L-2-----------4---|--5------------------| 
A|-----------------------|-----------------2--L-----|---------------------| 
E|-----------------------|--------------------------|---------------------| 

G|----------------------|-----------------------|-------------2--------| 
D|----------------------|--5--------4-----------|-----2--L-------------| 
A|--5----4----2----0----|-----------------------|----------------------| 
E|----------------------|-----------------------|----------------------| 



Intermezzo

G|----------------------------------------------|-----------------------| 
D|----------------------------2--L-2------------|-----2--L-2------------| 
A|-------------------------------------2--------|--------------2--------| 
E|----------------------------------------------|-----------------------| 

G|-----------------------|-------------------|--2----------------| 
D|-----2--L-2------------|--2----------------|-------------------| 
A|--------------2--------|-------------------|-------------------| 
E|-----------------------|-------------------|-------------------| 

G|---------------------|---------------------|--------------------| 
D|--5------7--L--------|--3------2--L--------|--5--------7--------| 
A|---------------------|---------------------|--------------------| 
E|---------------------|---------------------|--------------------| 

G|---------------------| 
D|--3------2--L--------| 
A|---------------------| 
E|---------------------| 



G|-----------------------|--2----------------|---------------------| 
D|--2--------------------|-------------------|--5------7--L--------| 
A|-----------------------|-------------------|---------------------| 
E|-----------------------|-------------------|---------------------| 

G|---------------------|--------------------|---------------------| 
D|--3------2--L--------|--5--------7--------|--3------2--L--------| 
A|---------------------|--------------------|---------------------| 
E|---------------------|--------------------|---------------------| 

G|--3------2--L--------|---------------------|-------------------| 
D|---------------------|--3------2--L--------|-------------------| 
A|---------------------|---------------------|--1----------------| 
E|---------------------|---------------------|-------------------| 

G|-------------------| 
D|-------------------| 
A|--L----------------| 
E|-------------------| 



Leave your comments about this lesson