Michael Jackson

Rock With You

Rock With You by Michael Jackson Bass Tab and Video Lesson

Level: Intermediate

Genre:R&B

Instrument:5 String Bass

NOTES

How to play Rock With You by Michael Jackson in Bass Guitar.

G|--------------------------------------------|---------------------------| 
D|--------------------------------------------|--------------8------------| 
A|--------------------------------------------|------------8------8-------| 
E|--------------------------------------------|--6------------------6-----| 
B|--4----------------------------4-4----------|---------------------------| 

G|-------------------------|------------------------|-------------------------| 
D|-------------------------|------------------------|-------------------------| 
A|-------------------------|-----------4--L----5----|-------------------------| 
E|-------------------------|--6---------------------|-------------------------| 
B|--4---------4-4----------|------------------------|--4---------4-4----------| 

G|------------------------------|-----------------------| 
D|------------8-----------------|-----------------------| 
A|----------8------8----7---6---|-----------------------| 
E|--6----------------6----5---5-|--4------4--L------4-3-| 
B|------------------------------|-----------------------| 

G|--------------------------| 
D|--------------------------| 
A|------------------4--4s-6-| 
E|--4------4--L--6----------| 
B|--------------------------| 



G|-------------------------------------------|-----------------------| 
D|-------------------------------------------|-----------------------| 
A|-------------------------------------------|-----------------------| 
E|---------------------------------2----3----|--4----------4----5----| 
B|--4----------------------------------------|-----------------------| 

G|------------------------|--------------------------|--------------------------| 
D|------------------------|------------8-------------|--------------------------| 
A|------------------------|----------8---------4--6--|--------------------------| 
E|--6---------x-6---------|--6------------6----------|--------------------2--3--| 
B|------------------------|--------------------------|--4---------x-4---x-------| 

G|------------------------|---------------------------| 
D|------------------------|---------------------8-----| 
A|------------------------|-------------------8-----8-| 
E|--4---------x-4----5----|--6---------x-6------------| 
B|------------------------|---------------------------| 

G|------------------------------| 
D|------------------------------| 
A|----------------8-------6-----| 
E|--6---------x-6---6---4---4---| 
B|------------------------------| 



Pre-Chorus 1

G|------------------------------------------|------------------------| 
D|------------------------------------------|------------------------| 
A|------------------------------------------|------------------------| 
E|--2---------------------------2-2---------|--1-------1-1-1------1--| 
B|------------------------------------------|------------------------| 

G|--------------------------|-------------------------|----------------------| 
D|--------------------------|-----------6--L----------|----------------------| 
A|--2-----------2---2-------|--------6----------------|--6----8----9---------| 
E|------------2-------2--3--|--4--4-----------4--4----|----------------------| 
B|--------------------------|-------------------------|----------------------| 

G|-------------------|-----------------------|----------------------| 
D|-------------------|-----------------5--6--|--L-------------------| 
A|-------------------|--6----8----9----------|----------------------| 
E|-------------------|-----------------------|------------------4\--| 
B|-------------------|-----------------------|----------------------| 



G|----------------------------------------------|-----------------------------| 
D|----------------------------------------------|--------------8--------------| 
A|----------------------------------------------|------------8------8-----8---| 
E|----------------------------------------------|--6------------------6-----6-| 
B|--4------------------------------4-4----------|-----------------------------| 

G|--------------------------|-----------------------|--------------------------| 
D|--------------------------|-----------------------|--------------------------| 
A|--------------------------|---------x-4-4----5----|--6-----------------------| 
E|--------------------------|--6--------------------|----6---------------------| 
B|--4-4-4--4---4-4----------|-----------------------|------4--4---4-4----------| 

G|--------------------------|------------------------|-----------------------| 
D|-----------8--8-----------|-----------6------------|-----------------------| 
A|---------8--------8-------|---------6--------------|-----------------------| 
E|--6----L------------6--5--|--4----L------4---------|--4---------4----5--6--| 
B|--------------------------|------------------------|-----------------------| 



G|-------------------------------------------|-----------------------| 
D|-------------------------------------------|-----------------------| 
A|--6----------------------------------------|-----------------------| 
E|---------------------------------2----3----|--4----------4----5----| 
B|-------------------------------------------|-----------------------| 

G|-------------------------|----------------------------| 
D|-------------------------|-------------8-9-8----------| 
A|-------------------------|-------------------11-9--8--| 
E|--6---------x-6--------6-|--6-------------------------| 
B|-------------------------|----------------------------| 

G|--------------------------|-----------------------|---------------------------| 
D|--------------------------|-----------------------|--------------8------------| 
A|--6-----------------------|-----------------------|------------8--------------| 
E|---------------6----------|--4----------4----5----|--6--------------------6-4-| 
B|-----------------7--6--4--|-----------------------|---------------------------| 

G|-------------------------|-------| 
D|-------------------------|-------| 
A|-------------------------|-------| 
E|--6--------6-4-6----6----|-------| 
B|-------------------------|-------| 



Pre-Chorus 2

G|----------------------------------------------|-------------------------| 
D|-------------------------------------1----4-1-|--3-----------3----------| 
A|---------------------------------1-----4------|-------------------------| 
E|--2--------------------------2-2--------------|-----1--1---1---------1--| 
B|----------------------------------------------|-------------------------| 

G|----------------------|-----------------------|----------------------| 
D|----------------------|-----------------------|----------------------| 
A|--2---------2---------|---------------------6-|--6----8----9---------| 
E|-----------------3----|--4---------4----------|----------------------| 
B|----------------------|-----------------------|----------------------| 

G|-------------------|-----------------------|----------------------| 
D|-------------------|-----------------5--6--|--L-------------------| 
A|-------------------|--6----8----9----------|----------------------| 
E|-------------------|-----------------------|-------4----4\--------| 
B|-------------------|-----------------------|----------------------| 



G|-----------------------------------------------|---------------------------| 
D|-----------------------------------------------|--------------------8------| 
A|-----------------------------------------------|------------8-----8----8---| 
E|-----------------------------------------------|--6-----------6----------6-| 
B|--4------------------------------4-4---------4-|---------------------------| 

G|--------------------------|-------------------------|--------------------------| 
D|--------------------------|-------------------------|--------------------------| 
A|--6-----------------------|-----------4--4----5-----|--6-----------------------| 
E|--------------------------|--6-------------------6--|--------------------------| 
B|------------4-4---------4-|-------------------------|------------4-4---------4-| 

G|--------------------------|--------------------------|---------------------| 
D|--------------8-----8-----|-----------6--------------|---------------------| 
A|------------8-----8-------|--------------------------|---------------------| 
E|--6--------------------6--|--4-----------4-------4-4-|--4------4--4--------| 
B|--------------------------|--------------------------|---------------------| 



G|-------------------------------------------------------------| 
D|-------------------------------------------------------------| 
A|-------------------------------------------------------------| 
E|----------------------------------------------------------8--| 
B|--4-------------------------------------------4-4----6-7-----| 

G|----------------------------|--------------------------|-----------------------| 
D|--------------8-------------|--------------------------|-----------------------| 
A|------------8-----8----4s-6-|--------------------------|------------/4------4--| 
E|--6-----------------6-------|-----------------------8--|--6------6-------------| 
B|----------------------------|--4---------4-4--6--7-----|-----------------------| 

G|-----------------------------|---------------------|-------------------| 
D|-----------------------------|---------------------|-------------------| 
A|--4s-6----------6------------|---------3------4----|--L----------------| 
E|-----------------------------|--6------------------|-------------------| 
B|--------------4---x-4--4---4-|---------------------|-------------------| 

G|-----------6-8--6----------|--------------------------| 
D|-------------------x-4-----|--------------------------| 
A|--L------L-------------6-4-|--------------------------| 
E|---------------------------|-----------------------4--| 
B|---------------------------|--4---------4-4--6--7-----| 

G|-------------------------|--------------------------|------------------------| 
D|--------------8----------|--------------------------|------------------------| 
A|------------8-----8------|--------------------------|-----------4--L----5----| 
E|--6-----------------6----|--------------------------|--6---------------------| 
B|-------------------------|--4---------4-4---------4-|------------------------| 

G|--------------------------|---------------------|-------------------| 
D|--------------------------|---------------------|-------------------| 
A|--6-----------------------|---------3------4----|--L----------------| 
E|--------------------------|--6------------------|-------------------| 
B|------------4-4---------4-|---------------------|-------------------| 

G|--------------------|-----------| 
D|--------------------|-----------| 
A|--L--------5--------|-----------| 
E|--------------------|-----------| 
B|--------------------|-----------| 



G|--------------------------------------------|--6--5-------------------| 
D|--------------------------------------------|--------8-----8----------| 
A|------------------------------------------8-|------------------8------| 
E|--6---------------------------6-6-----------|--------------------6----| 
B|--------------------------------------------|-------------------------| 

G|--------------------18s--18--|---L---------------------| 
D|--------------------17s--17--|---L---------------------| 
A|--6--------------------------|-------------------------| 
E|-----------------------------|--------------x-1--2--1--| 
B|---------4-4-4-4-------------|-------------------------| 

G|--------------------------|-------------------------|--------4-----------------| 
D|-----------------1----4-1-|--3----------------------|--------------------------| 
A|-------------1-----4------|-------------------------|--2--2--------2---2-------| 
E|--2------L-2--------------|-------------------------|------------2-------2--3--| 
B|--------------------------|---------6-4-6-6---L--x--|--------------------------| 

G|----------------------------| 
D|-----6--6--6--6--6--6-------| 
A|-----------------------4s-6-| 
E|--4-------------------------| 
B|----------------------------| 



Final 1st Part

G|-------------------------------------------------------| 
D|-------------------------------------------------------| 
A|-------------------------------------------------------| 
E|--0--------------------------------------0-0---------0-| 
B|-------------------------------------------------------| 

G|--------------------------|--------------------------|-------------------------| 
D|-----------9--9-----------|--------------------------|-------------------------| 
A|---------9--------9-------|--------------------------|---------5--L---5--5--6--| 
E|--7----L------------7---0-|--0---------0-0-----0-----|--7-----------7----------| 
B|--------------------------|--------------------------|-------------------------| 

G|---------------------------|--------------------------|------------------------| 
D|---------------------------|-----------9--------------|------------------------| 
A|--7------------------------|---------9--------9-------|------------------------| 
E|-----------0-0-0---------0-|--7----L------------7--6--|--5------5-5-5------5-4-| 
B|---------------------------|--------------------------|------------------------| 

G|-------------------------| 
D|-------------------------| 
A|----------------------5--| 
E|--5------5-5-5--5--7-----| 
B|-------------------------| 



Final 2nd Part

G|------------------------------------------------------| 
D|------------------------------------------------------| 
A|--7---------------------------------------------------| 
E|----------------------------------------0-0---------0-| 
B|------------------------------------------------------| 

G|---------------------------|---------------------------| 
D|--------------9------------|---------------------------| 
A|------------9-----9----9---|--7------------------------| 
E|--7-----------------7----7-|------------0-0--------x-0-| 
B|---------------------------|---------------------------| 

G|-------------------------|--------------------------|-----------------------| 
D|-------------------------|--------------------------|-----------------------| 
A|---------5--L---5--6--7--|--5-7-5-------------------|-----------------------| 
E|--7-----------7----------|--------7-0----0--------0-|--7------7--L------3-4-| 
B|-------------------------|--------------------------|-----------------------| 

G|----------------------|------4-6-L---4--------------| 
D|----------------------|----7-------7----7--7--8--9--| 
A|----------------------|-----------------------------| 
E|--5------5--5----5----|--L--------------------------| 
B|----------------------|-----------------------------| 

G|---------------------------|--------------------------| 
D|---------------------------|--------------9-----------| 
A|--7------------------------|------------9-----9-------| 
E|---------7-7-7-7-3-3-0--0--|--7-----------------7---7-| 
B|---------------------------|--------------------------| 

G|--------------------------|-------------------------| 
D|--------------------------|-------------------------| 
A|--------------------------|---------5--L---5--5--6--| 
E|--0---------0-0---------0-|--7-----------7----------| 
B|--------------------------|-------------------------| 

G|-----------------------------|----------------------------| 
D|-----------------------------|------------------9---------| 
A|--7-------5-7----------------|----------------9---9-------| 
E|--------------7-0--------0-0-|--7--------7--L-------7---7-| 
B|-----------------------------|----------------------------| 

G|---------------------| 
D|---------------------| 
A|---------------------| 
E|--5------5--5--------| 
B|---------------------| 



Leave your comments about this lesson