Nirvana

Come as you are

Nirvana Bass Tab and Video Lesson

Level: Easy

Genre:Alternative Rock

Type of instrument:4 String Bass

NOTES

How to play Come as you are by Nirvana in Bass Guitar.

Intro, Verse and Solo

F|---------------------------------------------------------------| 
C|---------------------------------------------------------------| 
G|------------------------------------------------------7--7--8--| 
D|---------------------------------------------------------------| 

F|-------------------------|--------------------------|-------------------------| 
C|-------7-----7-----------|-----9-----------9--------|-------7-----7-----------| 
G|--9-------9-----9--9--8--|--7-----7--7--L-----7--8--|--9-------9-----9--9--8--| 
D|-------------------------|--------------------------|-------------------------| 

F|--------------------------| 
C|-----9-----------9--------| 
G|--7-----7--7--L-----7--8--| 
D|--------------------------| 



F|---------------------------------------------------------| 
C|---------------------------------------------------------| 
G|--2---------------------------------2--2--2--2--2--2--4--| 
D|---------------------------------------------------------| 

F|--------------------------|--------------------------| 
C|--------------------------|--------------------------| 
G|--5--5--5--5--5--5--3--0--|--2--2--2--2--2--2--2--4--| 
D|--------------------------|--------------------------| 

F|--------------------------|--------------------------| 
C|--------------------------|--------------------------| 
G|--5--5--5--5--5--5--3--0--|--2--2--2--2--2--2--2--4--| 
D|--------------------------|--------------------------| 

F|--------------------------|--------------------------| 
C|--------------------------|--------------------------| 
G|--5--5--5--5--5--5--3--0--|--2--2--2--2--2--2--2--4--| 
D|--------------------------|--------------------------| 

F|--------------------------| 
C|--------------------------| 
G|--5--5--5--5--5--7--7--8--| 
D|--------------------------| 



F|-------------------------------------------------------| 
C|-------------------------------------------------------| 
G|-------------------------------------------------------| 
D|--2----------------------------------2--2--2--2--2--2--| 


F|--------------------------|-------------------------|--------------------------| 
C|--------------------------|-------------------------|--------------------------| 
G|--------------------------|-------------------------|--------------------------| 
D|--5--5--5--5--5--5--5--0--|--2----2--2--2--2--2--2--|--5--5--5--5--5--5--5--0--| 

F|-------------------------|--------------------------|-------------------------| 
C|-------------------------|--------------------------|-------------------------| 
G|-------------------------|--------------------------|-------------------------| 
D|--2----2--2--2--2--2--2--|--5--5--5--5--5--5--5--0--|--2----2--2--2--2--2--2--| 

F|--------------------------| 
C|--------------------------| 
G|--------------------7--8--| 
D|--5--5--5--5--5--5--------| 



Leave your comments about this lesson