Pearl Jam

Even Flow

Pearl Jam Bass Tab and Video Lesson

108 BPM 108 BPM

Level: Intermediate

Genre:Alternative Rock

Type of instrument:Fretless Bass

NOTES

Learn how to play Even Flow by Pearl Jam in Fretless Bass Guitar with Drop D tunning.

G|---------------------------------------------|------------------------------|
D|---------------------------------------------|------------------------------|
A|-----------------------------5--L---5--------|--------------5--L---5--------|
D|--0-----------------5h-7---0------0----0--0--|--0--5h-7---0------0----0--0--|

                                                             NH           
G|------------------------------|------------------|-----------------------|
D|------------------------------|------------------|---------<>5--L--------|
A|--------------5--L---5--------|--5-3-------------|---------<>5--L--------|
D|--0--5h-7---0------0----0--0--|------6-5-3-0-3-5-|--0--------------------|


G|--------------------||
D|--L/----------------||
A|--L/----------------||
D|--------------------||



G|---------------------------------------------|
D|---------------------------------------------|
A|-----------------------------5--L-----5--5\--|
D|--0-----------------5h-7---0-------0---------|


G|-------------------------------|------------------------------|
D|-------------------------------|------------------------------|
A|--------------5--L---5---------|--------------5--L-----5--5\--|
D|--0--5h-7---0------0----0--0-0-|--0--5h-7---0-------0---------|


  				3x
G|--------------------------------||------------------------------|
D|-------------------------------*||------------------------------|
A|--------------5--L---5---------*||--------------5--L-----5--5\--|
D|--0--5h-7---0------0----0--0-0--||--0--5h-7---0-------0---------|


G|-------------------------------|------------------------------|
D|-------------------------------|------------------------------|
A|--------------5--L---5---------|--------------5--5---5--------|
D|--0--5h-7---0------0----0--0-0-|--0--5h-7---0------0----0--0--|


G|------------------|-------------------------------|
D|------------------|-------------------------------|
A|--5-3-------------|--------------5--L---5---------|
D|------6-5-3-0-3-5-|--0--5h-7---0------0----0--0-0-|


G|-------------------------------|-------------------------------|
D|-------------------------------|-------------------------------|
A|--------------5--L---5---------|--------------5--L---5---------|
D|--0--5h-7---0------0----0--0-0-|--0--5h-7---0------0----0--0-0-|

                              NH             
G|------------------|------------------------||
D|------------------|---------<>5--L/--------||
A|--5-3-------------|---------<>5--L/--------||
D|------6-5-3-0-3-5-|--0---------------------||



G|---------------------------------3--------|--------3------------------|
D|------------------------------------------|---------------------------|
A|--5--------------------5\--1--L-----1--0--|--1---1----1--L-1-1--1--3--|
D|---------------------0--------------------|---------------------------|


G|------------------5--------|------5-L-------------------|
D|---------------------------|----------------------------|
A|--5-----5\--3--L-----3--0--|--3--------3--L-3-3-3-3--0--|
D|------0--------------------|----------------------------|


G|------------------3--------|--------3------------------|
D|---------------------------|---------------------------|
A|--5-----5\--1--L-----1--0--|--1---1----1--L-1-1--1--3--|
D|------0--------------------|---------------------------|


G|------------------5--------|---------5--------------------|
D|---------------------------|------------------------------|
A|--5-----5\--3--L-----3--0--|--3--3-3----3-3-L-3-3-3-3--0--|
D|------0--------------------|------------------------------|


G|------------------3--------|--------3------------------|
D|---------------------------|---------------------------|
A|--5-----5\--1--L-----1--0--|--1---1----1--L-1-1--1--3--|
D|------0--------------------|---------------------------|


G|------------------5--------|----------------5-5--------|
D|---------------------------|---------------------------|
A|--5-----5\--3--L-----3--0--|--5---5-L--3--L------3--0--|
D|------0--------------------|---------------------------|


G|-----------------5--L/----||
D|--------------------------||
A|--5---5-L--3--L-----------||
D|--------------------------||



G|----------------------------------------------|
D|----------------------------------------------|
A|--5-----------------------5-L--3--L--L/-------|
D|----------------------------------------------|


G||----------------------------------||--------------------------------|
D||*--------------------------------*||*-------------------------------|
A||*--3-3-3-3-3-4-5-5-L-5-5-5-5--0--*||*--3-3--3-3-4-5-5-L-5-5-5-5--0--|
D||----------------------------------||--------------------------------|

				8x
G|--------------------------------||------------------------------|
D|-------------------------------*||*-----------------------------|
A|--3-3--3-3-4-5-5-L-5-5-5-5--0--*||*--3--3-4-L-4-5--L-5-5--5--0--|
D|--------------------------------||------------------------------|

			      4x
G|------------------------------||
D|-----------------------------*||
A|--3--3-4-L-4-5--L-5-5--5--0--*||
D|------------------------------||



G|------------------------------------------------|
D|------------------------------------------------|
A|--3-----------------3-3-3-3-4-5-5-L-5-5-5-5--0--|
D|------------------------------------------------|


G|--------------------------------||
D|--------------------------------||
A|--3-3-3-3-3-4-5-5-L-5-5--5--L\--||
D|--------------------------------||



Leave your comments about this lesson