Pearl Jam

Getaway

Getaway by Pearl Jam Bass Tab and Video Lesson

131 BPM 131 BPM

Level: Intermediate

Genre:Alternative Rock

Instrument:4 String Bass

NOTES

Learn how to play "Getaway" by Pearl Jam in Bass Guitar.

G|-----------------------------|--------------------------|
D|--------5--------------------|--------------------------|
A|--5g7------7--3--5--3--------|-----------3--3--3--L--0--|
E|-----------------------5--3--|--5--5--5-----------------|


G|----------------------------|---------------------------||
D|-------5--------------------|--------------------------*||
A|--5g7-----7--3--5--5--5--3--|--3--3--3--------------0--*||
E|----------------------------|-----------3--3--3--3------||


G|--------------------------||----------------------------|
D|--------------------------||*---------------------------|
A|--3--3--3-----------------||*---------------------------|
E|-----------3--3--3--3--0--||---1--1--1s--5--L--3--3--0--|


G|---------------------------|---------------------------|
D|---------------------------|---------------------------|
A|---------------------------|---------------------------|
E|--1--1--1s--5--L--3--3--0--|--1--1--1s--5--L--3--3--0--|


G|---------------------------||
D|--------------------------*||
A|--3--3--3--3--3--5--5--0--*||
E|---------------------------||



G|-------------------------------|---------------------------|
D|-------------------------------|---------------------------|
A|--0------0--0--0-0-0--0--0--0--|--3--3--3--3-3-3--5--L--7--|
E|-------------------------------|---------------------------|


G|---------------------------|----------------------------||
D|---------------------------|---------------------------*||
A|--8--8-8-8--8--8--8--8--8--|--7--7-7-7--7--7--7--7--7--*||
E|---------------------------|----------------------------||


G|----------------------------|----------------------------|
D|----------------5-----------|----------------5-----------|
A|--7--7--7--5h-7----7--5--7--|--7--7--7--5h-7----7--5--7--|
E|----------------------------|----------------------------|


G|----------------------|-------------------|----------------------------|
D|----------------------|-------------------|-------5--------------------|
A|----------------------|-------------------|--5g7-----7--3--5--5--5--3--|
E|--5\------------------|-------------------|----------------------------|


G|--------------------------||
D|--------------------------||
A|--3--3--3--------------0--||
E|-----------3--3--3--3-----||



Guitar Solo

G|------------------------------------|---------------------------|
D|------------------------------------|---------------------------|
A|------------------------------------|---------------------------|
E|--1-----------1--1s--5--L--3--3--0--|--1--1--1s--5--L--3--3--0--|


G|---------------------------|---------------------------||
D|---------------------------|--------------------------*||
A|---------------------------|--3--3--3--3--3--5--5--0--*||
E|--1--1--1s--5--L--3--3--0--|---------------------------||



G|------------------------------|---------------------------|
D|--7-----7--7--7-7-7--7--7--7--|--5--5--5--5-5-5--5--5--5--|
A|------------------------------|---------------------------|
E|------------------------------|---------------------------|


G|---------------------------|----------------------------|
D|--3--3--3--3-3-3--3--3--3--|--2--2--2--2-2-2--2--2--2s--|
A|---------------------------|----------------------------|
E|---------------------------|----------------------------|


G|---------------------------|---------------------------|
D|--7--7--7--7-7-7--7--7--7--|--5--5--5--5-5-5--5--5--5--|
A|---------------------------|---------------------------|
E|---------------------------|---------------------------|


G|---------------------------|----------------0-----------|
D|--3--3--3--3-3-3--3--3--3--|--2--2--2--0h-2----2--0--2--|
A|---------------------------|----------------------------|
E|---------------------------|----------------------------|


G|----------------0------------||----------------0-----------|
D|--2--2--2--0h-2----2--0--2--*||--2--2--2--0h-2----2--0-----|
A|----------------------------*||-------------------------0--|
E|-----------------------------||----------------------------|


G|-------------------||
D|-------------------||
A|--L----------------||
E|-------------------||



Leave your comments about this lesson