Prince

I Wanna Be Your Lover

I Wanna Be Your Lover by Prince Bass Tab and Video Lesson

115 BPM 115 BPM

Level: Easy

Genre:R&B

Instrument:4 String Bass

NOTES

How to play I Wanna Be Your Lover by Prince in Bass Guitar.

G|--------------------------|-----------------------|-------------------------|
D|--------------------------|-----------------------|-------------------------|
A|--7---------7-L--6--7-----|--7---7-L--6--L--------|--7--6--7----------------|
E|--------------------------|-----------------------|----------------------4--|


G|--------------8--L-----|-------------------------|-----------------------|
D|-------------------6---|-------------------------|-----------------------|
A|-----------------------|--7--------7-L--6--7-----|--7---7-L--6--L--------|
E|--L--------L-----------|-------------------------|-----------------------|


G|-------------------------|--------------------||
D|-------------------------|--------------------||
A|--7--6--7----------------|--------------------||
E|----------------------4--|--L-----------------||



G|--------------------------|-----------------------|-------------------------|
D|--------------------------|-----------------------|-------------------------|
A|--7---------7-L--6--7-----|--7---7-L--6--L--------|--7--6--7----------------|
E|--------------------------|-----------------------|----------------------4--|


G|--------------8--L------||--------------8--L-----||
D|-------------------6---*||-----------------------||
A|-----------------------*||-----------------------||
E|--L--------L------------||--4--------L-------7---||



Pre-Chorus

G|----------------------------|----------------------|
D|----------------------------|----------------------|
A|--7----------L--7--L--------|--6----L--6--L--------|
E|----------------------------|----------------------|


G|----------------------------|--------------------------||
D|--------4h--6--------4h--6--|--------4h--6-------------||
A|----------------------------|--------------------------||
E|--4--4---------4--4---------|--4--4---------4----------||



G|---------------------------|-----------------------|
D|---------------------------|-----------------------|
A|--7----------7-L--6--7-----|--7---7-L--6--L--------|
E|---------------------------|-----------------------|


G|-------------------------|--------------8--L------||----------------------||
D|-------------------------|-------------------6---*||-----------6----------||
A|--7--6--7----------------|-----------------------*||----------------------||
E|----------------------4--|--L--------L------------||--4-------------------||



G|----------------------|---------------------------|
D|---------------4h--6--|-----6--L---4--6----4h--6--|
A|----------------------|----------6----------------|
E|----------------------|--4------------------------|


G|---------------------------|---------------------------|
D|-----6--L---4--6----4h--6--|-----6--L---4--6----4h--6--|
A|----------6----------------|----------6----------------|
E|--4------------------------|--4------------------------|


G|---------------------------||
D|-----6--L---4--6----4h--6--||
A|----------6----------------||
E|--4------------------------||



Leave your comments about this lesson