Red Hot Chili Peppers

By the Way

By the Way by Red Hot Chili Peppers Bass Tab and Video Lesson

Level: Intermediate

Genre:Hard Rock

Instrument:4 String Bass

NOTES

How to play By the Way by Red Hot Chili Peppers in Bass Guitar.

G|-------------------------------------------------| 
D|--15-----------------15--15--15--15--15--15--15--| 
A|-------------------------------------------------| 
D|-------------------------------------------------| 

G|----------------------------------|----------------------------------| 
D|--14--14--14--14--14--14--14--14--|----------------------------------| 
A|----------------------------------|--12--12--12--12--12--12--12--12--| 
D|----------------------------------|----------------------------------| 

G|----------------------------------|----------------------------------| 
D|----------------------------------|--15--15--15--15--15--15--15--15--| 
A|--12--12--12--12--12--12--12--12--|----------------------------------| 
D|----------------------------------|----------------------------------| 

G|----------------------------------|--14--14--14--14--14--14--14--14--| 
D|----------------------------------|----------------------------------| 
A|--15--15--15--15--15--15--15--15--|----------------------------------| 
D|----------------------------------|----------------------------------| 

G|--14--14--14--14--14--14--14--14\--|--------------------------| 
D|-----------------------------------|--3--3--3--3--3--3--3--3--| 
A|-----------------------------------|--------------------------| 
D|-----------------------------------|--------------------------| 

G|--------------------------|--------------------------| 
D|--------------------------|--7--7--7--7--7--7--7--7--| 
A|--3--3--3--3--3--3--3--3--|--------------------------| 
D|--------------------------|--------------------------| 

G|---------------------------|----------------------------------| 
D|--7--7--7--7--7--7--7--7/--|--15--15--15--15--15--15--15--15--| 
A|---------------------------|----------------------------------| 
D|---------------------------|----------------------------------| 

G|--17--17--17--17--17--17--17--17--|----------------------------------| 
D|----------------------------------|--19--19--19--19--19--19--19--19--| 
A|----------------------------------|----------------------------------| 
D|----------------------------------|----------------------------------| 

G|----------------------------------| 
D|--19--19--19--19--19--19--19--19--| 
A|----------------------------------| 
D|----------------------------------| 



G|---------------------------------------------------| 
D|-------------------------------3-------------------| 
A|-------------------------3h-5------x-3h-5---x-3h-5-| 
D|--0-------------------0----------------------------| 

G|--------------------------------|----------------------------------| 
D|--------------3----------3------|--------------3-------------------| 
A|--------3h-5------x-3h-5---3----|--------3h-5------x-3h-5---x-3h-5-| 
D|--0--0-----------------------3--|--0--0----------------------------| 

G|--------------------------------| 
D|--------------------------------| 
A|--------3h-5--5---6-6-6-6-6-6-6-| 
D|--0--0--------------------------| 



Bridge Slow

G|---------------------------------------------------| 
D|-------------------------------3-------------------| 
A|-------------------------3h-5------x-3h-5---x-3h-5-| 
D|--0-------------------0----------------------------| 

G|--------------------------------|----------------------------------| 
D|--------------3----------3------|--------------3-------------------| 
A|--------3h-5------x-3h-5---3----|--------3h-5------x-3h-5---x-3h-5-| 
D|--0--0-----------------------3--|--0--0----------------------------| 

G|--------------------------------| 
D|--------------------------------| 
A|--------3h-5--5---6-6-6-6-6-6-6-| 
D|--0--0--------------------------| 



Bridge Slow Right Hand

G|---------------------------------------------------| 
D|-------------------------------3-------------------| 
A|-------------------------3h-5------x-3h-5---x-3h-5-| 
D|--0-------------------0----------------------------| 

G|--------------------------------|----------------------------------| 
D|--------------3----------3------|--------------3-------------------| 
A|--------3h-5------x-3h-5---3----|--------3h-5------x-3h-5---x-3h-5-| 
D|--0--0-----------------------3--|--0--0----------------------------| 

G|--------------------------------| 
D|--------------------------------| 
A|--------3h-5--5---6-6-6-6-6-6-6-| 
D|--0--0--------------------------| 



1st Chorus

G|--------------------------------------------| 
D|--3---------------------3---3-3--3--3/--10--| 
A|--------------------------------------------| 
D|--------------------------------------------| 

G|----------------------------------|--------------------------------| 
D|---L--10--10---10-10--10---L--10--|--12----12---12-12--12---L--12--| 
A|----------------------------------|--------------------------------| 
D|----------------------------------|--------------------------------| 

G|------------------------------------|---------------------------| 
D|---L--12--12---12-12--12---L-10-----|--3----3---3-3--3--3/--10--| 
A|--------------------------------12--|---------------------------| 
D|------------------------------------|---------------------------| 

G|----------------------------------|-------------------------| 
D|---L--10--10---10-10--10---L--10--|--7----7---7-7--7--7--7--| 
A|----------------------------------|-------------------------| 
D|----------------------------------|-------------------------| 

G|--------------------------| 
D|-----8--8--8--8--8--8--8--| 
A|--------------------------| 
D|--------------------------| 



1st Chorus Slow

G|--------------------------------------------| 
D|--3---------------------3---3-3--3--3/--10--| 
A|--------------------------------------------| 
D|--------------------------------------------| 

G|----------------------------------|--------------------------------| 
D|---L--10--10---10-10--10---L--10--|--12----12---12-12--12---L--12--| 
A|----------------------------------|--------------------------------| 
D|----------------------------------|--------------------------------| 

G|------------------------------------|---------------------------| 
D|---L--12--12---12-12--12---L-10-----|--3----3---3-3--3--3/--10--| 
A|--------------------------------12--|---------------------------| 
D|------------------------------------|---------------------------| 

G|----------------------------------|-------------------------| 
D|---L--10--10---10-10--10---L--10--|--7----7---7-7--7--7--7--| 
A|----------------------------------|-------------------------| 
D|----------------------------------|-------------------------| 

G|--------------------------| 
D|-----8--8--8--8--8--8--8--| 
A|--------------------------| 
D|--------------------------| 



1st Chorus Slow Right Hand

G|--------------------------------------------| 
D|--3---------------------3---3-3--3--3/--10--| 
A|--------------------------------------------| 
D|--------------------------------------------| 

G|----------------------------------|--------------------------------| 
D|---L--10--10---10-10--10---L--10--|--12----12---12-12--12---L--12--| 
A|----------------------------------|--------------------------------| 
D|----------------------------------|--------------------------------| 

G|------------------------------------|---------------------------| 
D|---L--12--12---12-12--12---L-10-----|--3----3---3-3--3--3/--10--| 
A|--------------------------------12--|---------------------------| 
D|------------------------------------|---------------------------| 

G|----------------------------------|-------------------------| 
D|---L--10--10---10-10--10---L--10--|--7----7---7-7--7--7--7--| 
A|----------------------------------|-------------------------| 
D|----------------------------------|-------------------------| 

G|--------------------------| 
D|-----8--8--8--8--8--8--8--| 
A|--------------------------| 
D|--------------------------| 



2nd Chorus

G|--------------------------------------------| 
D|--3---------------------3---3-3--3--3/--10--| 
A|--------------------------------------------| 
D|--------------------------------------------| 

G|----------------------------------|--------------------------------| 
D|---L--10--10---10-10--10---L--10--|--12----12---12-12--12---L--12--| 
A|----------------------------------|--------------------------------| 
D|----------------------------------|--------------------------------| 

G|--------------------------|---------------------------| 
D|---L--10----7----7--5--7--|--3----3---3-3--3--3/--10--| 
A|--------------------------|---------------------------| 
D|--------------------------|---------------------------| 

G|----------------------------------|-------------------------| 
D|---L--10--10---10-10--10---L--10--|--7----7---7-7--7--7--7--| 
A|----------------------------------|-------------------------| 
D|----------------------------------|-------------------------| 

G|---------------------------|--------------------------| 
D|-----8--8--8--8--8--8-7-5--|--3----3---3-3--8--9--10--| 
A|---------------------------|--------------------------| 
D|---------------------------|--------------------------| 

G|--------------------------------|--------------------------------| 
D|---L--10--10---10-10--7--10--7--|--12----12---12-12--12---L--12--| 
A|--------------------------------|--------------------------------| 
D|--------------------------------|--------------------------------| 

G|--------------------------------------|---------------------------| 
D|---L--12--12---12-12--12-12-14-14-12--|--3----3---3-3--3--3/--10--| 
A|--------------------------------------|---------------------------| 
D|--------------------------------------|---------------------------| 

G|----------------------------------|-------------------------| 
D|---L--10--10---10-10--10---L--10--|--7----7---7-7--7--7--7--| 
A|----------------------------------|-------------------------| 
D|----------------------------------|-------------------------| 
 
G|--------------------------| 
D|-----8--8--8--8--8--8\----| 
A|--------------------------| 
D|--------------------------| 



2nd Chorus Slow

G|--------------------------------------------| 
D|--3---------------------3---3-3--3--3/--10--| 
A|--------------------------------------------| 
D|--------------------------------------------| 

G|----------------------------------|--------------------------------| 
D|---L--10--10---10-10--10---L--10--|--12----12---12-12--12---L--12--| 
A|----------------------------------|--------------------------------| 
D|----------------------------------|--------------------------------| 

G|--------------------------|---------------------------| 
D|---L--10----7----7--5--7--|--3----3---3-3--3--3/--10--| 
A|--------------------------|---------------------------| 
D|--------------------------|---------------------------| 

G|----------------------------------|-------------------------| 
D|---L--10--10---10-10--10---L--10--|--7----7---7-7--7--7--7--| 
A|----------------------------------|-------------------------| 
D|----------------------------------|-------------------------| 

G|---------------------------|--------------------------| 
D|-----8--8--8--8--8--8-7-5--|--3----3---3-3--8--9--10--| 
A|---------------------------|--------------------------| 
D|---------------------------|--------------------------| 

G|--------------------------------|--------------------------------| 
D|---L--10--10---10-10--7--10--7--|--12----12---12-12--12---L--12--| 
A|--------------------------------|--------------------------------| 
D|--------------------------------|--------------------------------| 

G|--------------------------------------|---------------------------| 
D|---L--12--12---12-12--12-12-14-14-12--|--3----3---3-3--3--3/--10--| 
A|--------------------------------------|---------------------------| 
D|--------------------------------------|---------------------------| 

G|----------------------------------|-------------------------| 
D|---L--10--10---10-10--10---L--10--|--7----7---7-7--7--7--7--| 
A|----------------------------------|-------------------------| 
D|----------------------------------|-------------------------| 
 
G|--------------------------| 
D|-----8--8--8--8--8--8\----| 
A|--------------------------| 
D|--------------------------| 



2nd Chorus Slow Right Hand

G|--------------------------------------------| 
D|--3---------------------3---3-3--3--3/--10--| 
A|--------------------------------------------| 
D|--------------------------------------------| 

G|----------------------------------|--------------------------------| 
D|---L--10--10---10-10--10---L--10--|--12----12---12-12--12---L--12--| 
A|----------------------------------|--------------------------------| 
D|----------------------------------|--------------------------------| 

G|--------------------------|---------------------------| 
D|---L--10----7----7--5--7--|--3----3---3-3--3--3/--10--| 
A|--------------------------|---------------------------| 
D|--------------------------|---------------------------| 

G|----------------------------------|-------------------------| 
D|---L--10--10---10-10--10---L--10--|--7----7---7-7--7--7--7--| 
A|----------------------------------|-------------------------| 
D|----------------------------------|-------------------------| 

G|---------------------------|--------------------------| 
D|-----8--8--8--8--8--8-7-5--|--3----3---3-3--8--9--10--| 
A|---------------------------|--------------------------| 
D|---------------------------|--------------------------| 

G|--------------------------------|--------------------------------| 
D|---L--10--10---10-10--7--10--7--|--12----12---12-12--12---L--12--| 
A|--------------------------------|--------------------------------| 
D|--------------------------------|--------------------------------| 

G|--------------------------------------|---------------------------| 
D|---L--12--12---12-12--12-12-14-14-12--|--3----3---3-3--3--3/--10--| 
A|--------------------------------------|---------------------------| 
D|--------------------------------------|---------------------------| 

G|----------------------------------|-------------------------| 
D|---L--10--10---10-10--10---L--10--|--7----7---7-7--7--7--7--| 
A|----------------------------------|-------------------------| 
D|----------------------------------|-------------------------| 
 
G|--------------------------| 
D|-----8--8--8--8--8--8\----| 
A|--------------------------| 
D|--------------------------| 



Leave your comments about this lesson