Red Hot Chili Peppers

Dani California

Dani California by Red Hot Chili Peppers Bass Tab and Video Lesson

Level: Intermediate

Genre:Hard Rock

Instrument:4 String Bass

NOTES

Learn How to play Dani California by Red Hot Chili Peppers in Bass Guitar.

G|------------------------------|--------7---x---------------|
D|------------7-----------5--3--|--------------xg7--5--------|
A|------------------------------|--5--5----------------7--5--|
E|--5------5------0-3--3--------|----------------------------|


G|--------------------------|--------7-------------------||
D|--------7-----------5--3--|------------x-7-------------||
A|--------------------------|--5--5----------3--5-L-7--7-||
E|--5--5------0-3--3--------|----------------------------||



Verse 1 - 1st part

G|-------------------------------------------------------|
D|-------------------------------------7-----------5--3--|
A|-------------------------------------------------------|
E|--5-------------------------------5------0-3--3--------|


G|--------7---x---------------|--------------------------|
D|--------------xg7--5--------|--------7-----------5--3--|
A|--5--5----------------7--5--|--------------------------|
E|----------------------------|--5--5------0-3--3--------|


G|--------7--------------------|-------------------------|
D|-------------------5---------|-------7-----------5--3--|
A|--5--5------x-5h-7----7-5-3--|-------------------------|
E|-----------------------------|-5--5------0-3--3--------|


G|--------7---x------5----------|------------------------|
D|--------------xg7----------5--|-------7-----------5--3-|
A|--5--5----------------5h-7----|------------------------|
E|------------------------------|-5--5------0-3--3-------|


G|--------7---x---------------||
D|--------------xg7--5--------||
A|--5--5----------------7--5--||
E|----------------------------||



Verse 1 - 2nd part

G|-------------------------------------------------------|
D|-------------------------------------7-----------5--3--|
A|-------------------------------------------------------|
E|--5-------------------------------5------0-3--3--------|


G|--------7---x---------------|--------------------------|
D|--------------xg7--5--------|--------7-----------5--3--|
A|--5--5----------------7--5--|--------------------------|
E|----------------------------|--5--5------0-3--3--------|


G|--------7--------------------|-------------------------|
D|------------x-7--5-------5---|-------7-----------5--3--|
A|--5--5--------------5h-7---7-|-------------------------|
E|-----------------------------|-5--5------0-3--3--------|


G|--------7---x---------------|--------------------------|
D|--------------xg7--5--------|--------7-----------5--3--|
A|--5--5----------------7--5--|--------------------------|
E|----------------------------|--5--5------0-3--3--------|


G|--------------------------|--------------------------||
D|--------------------------|--------------------------||
A|--5----5----5-5--5--5--5--|--5--5--5--5--5--5--5-----||
E|--------------------------|-----------------------0--||



G|-----------------------------------------------------|
D|-----------------------------------------------------|
A|-----------------------------------------3-3--3--3-3-|
E|--1-------------------------1-1-1--1-1-1-------------|


G|------------------------------|------------------------------|
D|------------------------------|------------------------------|
A|--3h-5-5-5-5--5-5-5-----------|------------------3-3--3--3-3-|
E|--------------------3-3--3----|--1--1-1-1--1-1-1-------------|


G|------------------------------|------------------------------|
D|------------------------------|------------------------------|
A|--3h-5-5-5-5--5-5-5-----------|------------------3-3--3--3-3-|
E|--------------------3-3--3----|--1--1-1-1--1-1-1-------------|


G|------------------------------|------------------------------|
D|------------------------------|------------------------------|
A|--3h-5-5-5-5--5-5-5-----------|------------------3-3--3--3-3-|
E|--------------------3-3--3----|--1--1-1-1--1-1-1-------------|


G|-------------------------------|----------------------------|
D|-------------------------------|----------------------------|
A|--3h-5-5--5--x-5--x-5--x---x-5-|--x-x-5--x---x-5--x-5--5----|
E|-------------------------------|----------------------------|


G|--------------------------|--------7---x---------------|
D|--------7-----------5--3--|--------------xg7--5--------|
A|--------------------------|--5--5----------------7--5--|
E|--5--5------0-3--3--------|----------------------------|


G|--------------------------|--------7--------------------||
D|--------7-----------5--3--|------------------------5----||
A|--------------------------|--5--5-------------5h-7---7--||
E|--5--5------0-3--3--------|------------x-5-8------------||



G|-----------------------------------------------------|
D|-------------------------------9------9---9----------|
A|---------------------------------9------9----9--7h-9-|
E|--7-------------------------7------7-----------------|


G|----------------------------|------------------------------|
D|---------5---5-4--4-2-4-0---|--------9------9---9----------|
A|-------5--------------------|----------9------9----9--7h-9-|
E|--3--3----------------------|--7--7------7-----------------|


G|----------------------------|------------------------------|
D|---------5---5-4--4-2-4-0---|--------9------9---9----------|
A|-------5--------------------|----------9------9----9--7h-9-|
E|--3--3----------------------|--7--7------7-----------------|


G|----------------------------|------------------------------|
D|---------5---5-4--4-2-4-0---|--------9------9---9----------|
A|-------5--------------------|----------9------9----9--7h-9-|
E|--3--3----------------------|--7--7------7-----------------|


G|---------------------------||
D|--------9------------------||
A|------------------5--7-----||
E|--7--7------0-/7--------7--||



Special - Slow

G|-----------------------------------------------------|
D|-------------------------------9------9---9----------|
A|---------------------------------9------9----9--7h-9-|
E|--7-------------------------7------7-----------------|


G|----------------------------|------------------------------|
D|---------5---5-4--4-2-4-0---|--------9------9---9----------|
A|-------5--------------------|----------9------9----9--7h-9-|
E|--3--3----------------------|--7--7------7-----------------|


G|----------------------------|------------------------------|
D|---------5---5-4--4-2-4-0---|--------9------9---9----------|
A|-------5--------------------|----------9------9----9--7h-9-|
E|--3--3----------------------|--7--7------7-----------------|


G|----------------------------|------------------------------|
D|---------5---5-4--4-2-4-0---|--------9------9---9----------|
A|-------5--------------------|----------9------9----9--7h-9-|
E|--3--3----------------------|--7--7------7-----------------|


G|---------------------------||
D|--------9------------------||
A|------------------5--7-----||
E|--7--7------0-/7--------7--||



G|-------------------------------------------------|
D|-------------------------------7-----------5--3--|
A|-------------------------------------------------|
E|--5-------------------------5------0-3--3--------|


G|--------7---x---------------|--------------------------|
D|--------------xg7--5--------|--------7-----------5--3--|
A|--5--5----------------7--5--|--------------------------|
E|----------------------------|--5--5------0-3--3--------|


G|--------7-------------------|--------------------------|
D|------------------5---------|--------7-----------5--3--|
A|--5--5------x-/7-----/5--3--|--------------------------|
E|----------------------------|--5--5------0-3--3--------|


G|--------7---x---------------|--------------------------|
D|--------------xg7--5--------|--------7-----------5--3--|
A|--5--5----------------7--5--|--------------------------|
E|----------------------------|--5--5------0-3--3--------|


G|--------------------------|--------------------------||
D|--------------------------|--------------------------||
A|--5----5----5-5--5--5--5--|--5--5--5--5--5--5--5-----||
E|--------------------------|-----------------------0--||



Guitar Solo

G|---------------------------------------------------------|
D|---------------------------------------------------------|
A|---------------------------------------------3-3--3--3-3-|
E|--1-----------------------------1-1-1--1-1-1-------------|


G|------------------------------|------------------------------|
D|------------------------------|------------------------------|
A|--3h-5-5-5-5--5-5-5-----------|------------------3-3--3--3-3-|
E|--------------------3-3--3----|--1--1-1-1--1-1-1-------------|


G|------------------------------|------------------------------|
D|------------------------------|------------------------------|
A|--3h-5-5-5-5--5-5-5-----------|------------------3-3--3--3-3-|
E|--------------------3-3--3----|--1--1-1-1--1-1-1-------------|


G|------------------------------|------------------------------|
D|------------------------------|------------------------------|
A|--3h-5-5-5-5--5-5-5-----------|------------------3-3--3--3-3-|
E|--------------------3-3--3----|--1--1-1-1--1-1-1-------------|


G|-------------------------------|-----------------7-5---7-5--------||
D|-------------------------------|-------------5-7-----7-----7-5\--*||
A|--3h-5-5--5--x-5--x-5--x---x-5-|--x-x-5--x-5---------------------*||
E|-------------------------------|----------------------------------||


G|------------------------------|----------------------------|
D|------------------------------|----------------------------|
A|------------------------------|-------------------0--1--1--|
E|--1--1-1-1--1-1-1-1-1--1--1-1-|--1--1-1-1--1-1-1-----------|


G|----------------------------|--2----3----4----5---5----|---------||
D|--------2----3----4----5----|--------------------------|---------||
A|--3--3-----3----3----3----3-|-----3----3----3----------|--5------||
E|----------------------------|--------------------------|---------||



G|-------------------------------------------------|
D|-------------------------------7-----------5--3--|
A|-------------------------------------------------|
E|--5-------------------------5------0-3--3--------|


G|--------7---x---------------|--------------------------|
D|--------------xg7--5--------|--------7-----------5--3--|
A|--5--5----------------7--5--|--------------------------|
E|----------------------------|--5--5------0-3--3--------|


G|--------7----------7b--5-------|--------------------------|
D|-----------5h-7----------7-5---|--------7-----------5--3--|
A|--5--5-----------------------7-|--------------------------|
E|-------------------------------|--5--5------0-3--3--------|


G|--------7---x---------------|--------------------------|
D|--------------xg7--5--------|--------7-----------5--3--|
A|--5--5----------------7--5--|--------------------------|
E|----------------------------|--5--5------0-3--3--------|


G|---------------------------|-----------------------------|
D|---------------------------|-----------------------------|
A|--5----5----5-5--5--5--5-5-|--5-5-5--5--5-5-5-5-5--5--5--|
E|---------------------------|-----------------------------|


G|--9--9--9--9--9--9--9--9--|--------------------------||
D|--------------------------|--------------------------||
A|--------------------------|--------------------------||
E|--------------------------|--0--0--0--0--0--0--0--0--||



Leave your comments about this lesson