Red Hot Chili Peppers

Tell me Baby

Tell me Baby by Red Hot Chili Peppers Bass Tab and Video Lesson

Level: Advanced

Genre:Hard Rock

Instrument:4 String Bass

NOTES

How to play Tell me Baby by Red Hot Chili Peppers in Bass Guitar.

Intro and Verse

    S                                S   S T T   T T T   T     
G|-----------------------------------------------------------| 
D|--5h---------------------------7-x-5---x-------------------| 
A|-----------------------------------------------------------| 
E|-----------------------------------------5-5---x-5-5---5---| 


    S      S   S T T   T T T   T      S      S   S T T   T T T   T     
G|---------------------------------|---------------------------------| 
D|--5h-7-x-5---x-------------------|--5h-7-x-5---x-------------------| 
A|---------------------------------|---------------------------------| 
E|---------------5-5---x-5-5---5---|---------------5-5---x-5-5---5---| 


    S      S   S T T T  T  T  T     
G|-------------------------------| 
D|--5h-7-x-5---x-----------------| 
A|-------------------------------| 
E|---------------5-5-0--0--3--3--| 



Intro and Verse Slow

    S                                S   S T T   T T T   T     
G|-----------------------------------------------------------| 
D|--5h---------------------------7-x-5---x-------------------| 
A|-----------------------------------------------------------| 
E|-----------------------------------------5-5---x-5-5---5---| 


    S      S   S T T   T T T   T      S      S   S T T   T T T   T     
G|---------------------------------|---------------------------------| 
D|--5h-7-x-5---x-------------------|--5h-7-x-5---x-------------------| 
A|---------------------------------|---------------------------------| 
E|---------------5-5---x-5-5---5---|---------------5-5---x-5-5---5---| 


    S      S   S T T T  T  T  T     
G|-------------------------------| 
D|--5h-7-x-5---x-----------------| 
A|-------------------------------| 
E|---------------5-5-0--0--3--3--| 



Chorus 1st Part

    T                         T S   S T  T  S     T    
G|------------------------------------------5--------| 
D|------------------------------3---3----------------| 
A|---------------------------------------3--------3--| 
E|--1-------------------------1-------1--------------| 


    T   T S   S T  T  S  T  T     T   T S   S T  T  S     T    
G|-----------------------------|--------------------5--------| 
D|--------5---5-------7--------|--------3---3----------------| 
A|-----------------------------|-----------------3--------3--| 
E|--3---3-------3--5-----5--3--|--1---1-------1--------------| 


    T   T S   S T  T  S          T   T S   S T  T  S     T    
G|--------------------7-------|--------------------5--------| 
D|--------5---5---------------|--------3---3----------------| 
A|-----------------5----------|-----------------3--------3--| 
E|--3---3-------3-------------|--1---1-------1--------------| 


    T   T S   S T  T  S  T  T     T   T S   S T  T  S     T    
G|-----------------------------|--------------------5--------| 
D|--------5---5-------7--------|--------3---3----------------| 
A|-----------------------------|-----------------3--------3--| 
E|--3---3-------3--5-----5--3--|--1---1-------1--------------| 


    T   T T S  T  T   T T S       
G|-----------------------------| 
D|----------5-------------5----| 
A|-----------------------------| 
E|--3---3-3----3--3---3-3------| 



Chorus 1st Part Slow

    T                         T S   S T  T  S     T    
G|------------------------------------------5--------| 
D|------------------------------3---3----------------| 
A|---------------------------------------3--------3--| 
E|--1-------------------------1-------1--------------| 


    T   T S   S T  T  S  T  T     T   T S   S T  T  S     T    
G|-----------------------------|--------------------5--------| 
D|--------5---5-------7--------|--------3---3----------------| 
A|-----------------------------|-----------------3--------3--| 
E|--3---3-------3--5-----5--3--|--1---1-------1--------------| 


    T   T S   S T  T  S          T   T S   S T  T  S     T    
G|--------------------7-------|--------------------5--------| 
D|--------5---5---------------|--------3---3----------------| 
A|-----------------5----------|-----------------3--------3--| 
E|--3---3-------3-------------|--1---1-------1--------------| 


    T   T S   S T  T  S  T  T     T   T S   S T  T  S     T    
G|-----------------------------|--------------------5--------| 
D|--------5---5-------7--------|--------3---3----------------| 
A|-----------------------------|-----------------3--------3--| 
E|--3---3-------3--5-----5--3--|--1---1-------1--------------| 


    T   T T S  T  T   T T S       
G|-----------------------------| 
D|----------5-------------5----| 
A|-----------------------------| 
E|--3---3-3----3--3---3-3------| 



Chorus 2nd Part

    T                         T S   S T  T  S     T    
G|------------------------------------------5--------| 
D|------------------------------3---3----------------| 
A|---------------------------------------3--------3--| 
E|--1-------------------------1-------1--------------| 


    T   T S   S T  T  S  T  T     T   T S   S T  T  S     T    
G|-----------------------------|--------------------5--------| 
D|--------5---5-------7--------|--------3---3----------------| 
A|-----------------------------|-----------------3--------3--| 
E|--3---3-------3--5-----5--3--|--1---1-------1--------------| 


    T   T S   S T  T  S          T   T S   S T  T  S     T    
G|--------------------7-------|--------------------5--------| 
D|--------5---5---------------|--------3---3----------------| 
A|-----------------5----------|-----------------3--------3--| 
E|--3---3-------3-------------|--1---1-------1--------------| 


    T   T S   S T  T  S  T  T     T   T S   S T  T  S     T    
G|-----------------------------|--------------------5--------| 
D|--------5---5-------7--------|--------3---3----------------| 
A|-----------------------------|-----------------3--------3--| 
E|--3---3-------3--5-----5--3--|--1---1-------1--------------| 


    T   T T S   T S T   T T S   T S    T S T  S  T                 
G|----------------------------------|---------------------------| 
D|----------5-----5---------5-----5-|----5----5-----------5-----| 
A|----------------------------------|------------------5-----5--| 
E|--3---3-3-----x---3---3-3-----x---|--3---3-----3--3-----------| 



Chorus 2nd Part Slow

    T                         T S   S T  T  S     T    
G|------------------------------------------5--------| 
D|------------------------------3---3----------------| 
A|---------------------------------------3--------3--| 
E|--1-------------------------1-------1--------------| 


    T   T S   S T  T  S  T  T     T   T S   S T  T  S     T    
G|-----------------------------|--------------------5--------| 
D|--------5---5-------7--------|--------3---3----------------| 
A|-----------------------------|-----------------3--------3--| 
E|--3---3-------3--5-----5--3--|--1---1-------1--------------| 


    T   T S   S T  T  S          T   T S   S T  T  S     T    
G|--------------------7-------|--------------------5--------| 
D|--------5---5---------------|--------3---3----------------| 
A|-----------------5----------|-----------------3--------3--| 
E|--3---3-------3-------------|--1---1-------1--------------| 


    T   T S   S T  T  S  T  T     T   T S   S T  T  S     T    
G|-----------------------------|--------------------5--------| 
D|--------5---5-------7--------|--------3---3----------------| 
A|-----------------------------|-----------------3--------3--| 
E|--3---3-------3--5-----5--3--|--1---1-------1--------------| 


    T   T T S   T S T   T T S   T S    T S T  S  T                 
G|----------------------------------|---------------------------| 
D|----------5-----5---------5-----5-|----5----5-----------5-----| 
A|----------------------------------|------------------5-----5--| 
E|--3---3-3-----x---3---3-3-----x---|--3---3-----3--3-----------| 



Chorus 2nd Part Slow Right Hand

    T                         T S   S T  T  S     T    
G|------------------------------------------5--------| 
D|------------------------------3---3----------------| 
A|---------------------------------------3--------3--| 
E|--1-------------------------1-------1--------------| 


    T   T S   S T  T  S  T  T     T   T S   S T  T  S     T    
G|-----------------------------|--------------------5--------| 
D|--------5---5-------7--------|--------3---3----------------| 
A|-----------------------------|-----------------3--------3--| 
E|--3---3-------3--5-----5--3--|--1---1-------1--------------| 


    T   T S   S T  T  S          T   T S   S T  T  S     T    
G|--------------------7-------|--------------------5--------| 
D|--------5---5---------------|--------3---3----------------| 
A|-----------------5----------|-----------------3--------3--| 
E|--3---3-------3-------------|--1---1-------1--------------| 


    T   T S   S T  T  S  T  T     T   T S   S T  T  S     T    
G|-----------------------------|--------------------5--------| 
D|--------5---5-------7--------|--------3---3----------------| 
A|-----------------------------|-----------------3--------3--| 
E|--3---3-------3--5-----5--3--|--1---1-------1--------------| 


    T   T T S   T S T   T T S   T S    T S T  S  T                 
G|----------------------------------|---------------------------| 
D|----------5-----5---------5-----5-|----5----5-----------5-----| 
A|----------------------------------|------------------5-----5--| 
E|--3---3-3-----x---3---3-3-----x---|--3---3-----3--3-----------| 



    S                       S   S T T   T T T   T     
G|--------------------------------------------------| 
D|--5h------------------7-x-5---x-------------------| 
A|--------------------------------------------------| 
E|--------------------------------5-5---x-5-5---5---| 


    S      S   S T T   T T T   T      S      S   S T T   T T T   T     
G|---------------------------------|---------------------------------| 
D|--5h-7-x-5---x-------------------|--5h-7-x-5---x-------------------| 
A|---------------------------------|---------------------------------| 
E|---------------5-5---x-5-5---5---|---------------5-5---x-5-5---5---| 


    S      S   S T                       S      S   S T T   T T T   T     
G|-----------------------7-8-9-8-7----|---------------------------------| 
D|--5h-7-x-5---x-------7-----------10-|--5h-7-x-5---x-------------------| 
A|------------------------------------|---------------------------------| 
E|---------------5-5------------------|---------------5-5---x-5-5---5---| 


    S      S   S T T   T T T   T      S      S   S T T   T T T   T     
G|---------------------------------|---------------------------------| 
D|--5h-7-x-5---x-------------------|--5h-7-x-5---x-------------------| 
A|---------------------------------|---------------------------------| 
E|---------------5-5---x-5-5---5---|---------------5-5---x-5-5---5---| 


    S      S   S T T                 
G|--------------------------------| 
D|--5h-7-x-5---x-----7--5---------| 
A|-------------------------7-5-3--| 
E|---------------5-5--------------| 



Solo Slow

    S                       S   S T T   T T T   T     
G|--------------------------------------------------| 
D|--5h------------------7-x-5---x-------------------| 
A|--------------------------------------------------| 
E|--------------------------------5-5---x-5-5---5---| 


    S      S   S T T   T T T   T      S      S   S T T   T T T   T     
G|---------------------------------|---------------------------------| 
D|--5h-7-x-5---x-------------------|--5h-7-x-5---x-------------------| 
A|---------------------------------|---------------------------------| 
E|---------------5-5---x-5-5---5---|---------------5-5---x-5-5---5---| 


    S      S   S T                       S      S   S T T   T T T   T     
G|-----------------------7-8-9-8-7----|---------------------------------| 
D|--5h-7-x-5---x-------7-----------10-|--5h-7-x-5---x-------------------| 
A|------------------------------------|---------------------------------| 
E|---------------5-5------------------|---------------5-5---x-5-5---5---| 


    S      S   S T T   T T T   T      S      S   S T T   T T T   T     
G|---------------------------------|---------------------------------| 
D|--5h-7-x-5---x-------------------|--5h-7-x-5---x-------------------| 
A|---------------------------------|---------------------------------| 
E|---------------5-5---x-5-5---5---|---------------5-5---x-5-5---5---| 


    S      S   S T T                 
G|--------------------------------| 
D|--5h-7-x-5---x-----7--5---------| 
A|-------------------------7-5-3--| 
E|---------------5-5--------------| 



Solo Slow Right Hand

    S                       S   S T T   T T T   T     
G|--------------------------------------------------| 
D|--5h------------------7-x-5---x-------------------| 
A|--------------------------------------------------| 
E|--------------------------------5-5---x-5-5---5---| 


    S      S   S T T   T T T   T      S      S   S T T   T T T   T     
G|---------------------------------|---------------------------------| 
D|--5h-7-x-5---x-------------------|--5h-7-x-5---x-------------------| 
A|---------------------------------|---------------------------------| 
E|---------------5-5---x-5-5---5---|---------------5-5---x-5-5---5---| 


    S      S   S T                       S      S   S T T   T T T   T     
G|-----------------------7-8-9-8-7----|---------------------------------| 
D|--5h-7-x-5---x-------7-----------10-|--5h-7-x-5---x-------------------| 
A|------------------------------------|---------------------------------| 
E|---------------5-5------------------|---------------5-5---x-5-5---5---| 


    S      S   S T T   T T T   T      S      S   S T T   T T T   T     
G|---------------------------------|---------------------------------| 
D|--5h-7-x-5---x-------------------|--5h-7-x-5---x-------------------| 
A|---------------------------------|---------------------------------| 
E|---------------5-5---x-5-5---5---|---------------5-5---x-5-5---5---| 


    S      S   S T T                 
G|--------------------------------| 
D|--5h-7-x-5---x-----7--5---------| 
A|-------------------------7-5-3--| 
E|---------------5-5--------------| 



Leave your comments about this lesson