Red Hot Chili Peppers

Under the Bridge

Under the Bridge by Red Hot Chili Peppers Bass Tab and Video Lesson

Level: Easy

Genre:Hard Rock

Instrument:4 String Bass

NOTES

How to play Under the Bridge by Red Hot Chili Peppers in Bass Guitar.

G|---------------------------------------------|--------------------| 
D|---------------------------------------------|--------------------| 
A|---------------------------------------------|--------------------| 
E|--0------------------------0--0--0--0--------|--L-----------------| 



G|---------------------------------------------------| 
D|------------------------------------------9--------| 
A|------------------------------------7--7-----7-----| 
E|------------------------------2-----------------9--| 

G|--------------------------|--------------------------| 
D|-----9--------------------|-----------------9--------| 
A|--------7--9--9--9--9-----|-----------7--7-----7-----| 
E|--7-----------------------|-----2-----------------9--| 

G|---------------------------------|--------------------------| 
D|-----9---------------------------|-----------------9--------| 
A|--------7--9--L--9h-11p-9h-11-9--|-----------7--7-----7-----| 
E|--7------------------------------|-----2-----------------9--| 

G|--------------------------|--------------------------|------------------------| 
D|-----9--------------------|-----------------9--------|-----9------------------| 
A|--------7--9--9--9--9-----|-----------7--7-----7-----|--------7--9--9---------| 
E|--7-----------------------|-----2-----------------9--|--7---------------------| 

G|----------------------|------------------------|----------------------| 
D|----------------------|------------------------|----------------------| 
A|---------2--L---------|------------------------|---------2--L---------| 
E|--0-------------------|----------4-----5--5----|--0-------------------| 

G|------------------------| 
D|------------------------| 
A|-----4--L---------------| 
E|-----------5--5---------| 



G|----------------------------------------|------------------------| 
D|----------------------------------------|------------------------| 
A|---------------------------2--L---------|------------------------| 
E|--0-------------------------------------|----------4-----5--L----| 

G|----------------------|------------------------|----------------------| 
D|----------------------|------------------------|----------------------| 
A|---------2--L---------|-----4--L---------------|---------2--L---------| 
E|--0-------------------|-----------5--5---------|--0-------------------| 

G|------------------------|----------------------|------------------------| 
D|------------------------|----------------------|------------------------| 
A|------------------------|---------2--L---------|-----4--L---------------| 
E|----------4-----5--L----|--0-------------------|-----------5--5---------| 

G|--------------------|-----------------------| 
D|--14----------------|---L-------------L-----| 
A|--------------------|-----------------------| 
E|--------------------|-----------------------| 



G|---------------------------------------------------| 
D|------------------------------------------9--------| 
A|------------------------------------7--7-----7-----| 
E|------------------------------2-----------------9--| 

G|--------------------------------|--------------------------| 
D|-----9--------------------------|-----------------9--------| 
A|--------7--9--L--9h-11p-9p-7-9--|-----------7--7-----7-----| 
E|--7-----------------------------|-----2-----------------9--| 

G|---------------------------|--------------------------| 
D|-----9---------------------|-----------------9--------| 
A|--------7--9\--------------|-----------7--7-----7-----| 
E|--7---------------2--2-----|-----2-----------------9--| 

G|--------------------------|--------------------------| 
D|-----9--------------------|-----------------9--------| 
A|--------7--9--9--9--9-----|-----------7--7-----7-----| 
E|--7-----------------------|-----2-----------------9--| 

G|-------------------------| 
D|-----9-------------------| 
A|--------7--9--9----9-----| 
E|--7----------------------| 



Pre Chorus

G|----------------------------------5--L-----------| 
D|----------------------------------------7--5--7--| 
A|-------------------------------------------------| 
E|--5----------------------------------------------| 

G|-----7--------------5-L------|-----------------9--------| 
D|--5-----5--3--L-5-7-----7-5--|--------------------------| 
A|-----------------------------|--0--0--0--0--0-----0--0--| 
E|-----------------------------|--------------------------| 

G|-----7--------------5--------|---------5--L-----------| 
D|--5-----5--3--L-5-7---7-5-7--|---------------7--5--7--| 
A|-----------------------------|------------------------| 
E|-----------------------------|--5---------------------| 

G|-----7--------------5-L------|----------------------|----------------------| 
D|--5-----5--3--L-5-7-----7-5--|----------------------|----------------------| 
A|-----------------------------|----------------------|----------------------| 
E|-----------------------------|--1----1----1---------|--0----0----3----3----| 



G|------------------------------------------5--L-----------| 
D|------------------------------------------------7--5--7--| 
A|---------------------------------------------------------| 
E|--5---------------------------------5--5-----------------| 

G|-----7--------------5-L------|-----------------9--------| 
D|--5-----5--3--L-5-7-----7-5--|--------------------------| 
A|-----------------------------|--0--0--0--0--0-----0--0--| 
E|-----------------------------|--------------------------| 

G|-----7--------------5--------|-----------5--L-----------| 
D|--5-----5--3--L-5-7---7-5-7--|-----------------7--5--7--| 
A|-----------------------------|--0--0--0-----------------| 
E|-----------------------------|--------------------------| 

G|-----7--------------5-L------|-----------5--L-----------| 
D|--5-----5--3--L-5-7-----7-5--|-----------------7--5--7--| 
A|-----------------------------|--0--0--0-----------------| 
E|-----------------------------|--------------------------| 

G|-----7--------------5--------| 
D|--5-----5--3--L-5-7---7-5-7--| 
A|-----------------------------| 
E|-----------------------------| 



G|-----------------------------------------------------| 
D|---------------------------------10---L--------------| 
A|--0------------------------0--0----------12--10--12--| 
E|-----------------------------------------------------| 

G|--------------------------------------|-------9--------9--------| 
D|------12-----------------10--L--------|-------------------------| 
A|--10------10--8--L-10-12-------12-10--|--0-------0--0-----0--0--| 
E|--------------------------------------|-------------------------| 

                              |--3--|                                         
G|-----------------------------------------|-----9-------------------------| 
D|------12------------------10-12-10-------|--------7--10---L--------------| 
A|--10------10--8--L-10-12-----------12-10-|--0----------------12--10--12--| 
E|-----------------------------------------|-------------------------------| 

G|--------------------------------------|-------9--------9--------| 
D|------12-----------------10--L--------|-------------------------| 
A|--10------10--8--L-10-12-------12-10--|--0-------0--0-----0--0--| 
E|--------------------------------------|-------------------------| 

G|-----7-----------------|-------------------| 
D|--5-----5--3--L--------|-------------------| 
A|-----------------------|--0----------------| 
E|-----------------------|-------------------| 



Leave your comments about this lesson