Rolling Stones

Honky Tonk Woman

Honky Tonk Woman by Rolling Stones Bass Tab and Video Lesson

120 BPM 120 BPM

Level: Easy

Genre:Rock

Instrument:4 String Bass

NOTES

How to play Honky Tonk Woman by The Rolling Stones in Bass Guitar.

G|------------------------------------|------------------------|
D|------------------------------------|------------------------|
A|------------------------------------|------------------------|
E|---------------------------------3--|--3------------3-----5--|


G|------------------------|------------------------|------------------------|
D|------------------------|------------------------|------------------------|
A|--5------------5--------|------------------------|------------------------|
E|---------------------0--|--3--3---------------0--|--3------------3-----5--|


G|-------------------------|------------------------|------------------------|
D|--/5------------5--------|------------------------|------------------------|
A|-------------------------|--5------------5--------|------------------------|
E|----------------------5--|---------------------0--|--3------------3-----0--|


G|-----------------------||
D|-----------------------||
A|-----------------------||
E|--3------------3-------||



G|--------------------------------------------------|-----------------------|
D|--5-----------------------------------------------|-----------------------|
A|--------------------------------------------------|--5------------5-------|
E|------------------------------3----------3-----5--|-----------------------|


G|------------------------|----------------------||
D|--5---------------------|---------------------*||
A|------------------------|---------------------*||
E|-----3---------------3--|-----3----------------||



Guitar Solo

G|--------------------------------------------------|-------------------------|
D|---------------------------------5-------5--------|-----5--5-------5--------|
A|--------------------------------------------------|-------------------------|
E|--3-----------------------------------3--------3--|--3----------3-----3--0--|


G|-------------------------|-------------------------|-------------------------|
D|-------------------------|-------------------------|-----5----------5--------|
A|--3--3-----3--L-------3--|-----3--3----------------|-------------------------|
E|-------------------------|-------------0--1--2--3--|--3-----3----3--------5--|


G|-------------------------|-------------------5--7--|--7---------------------|
D|-----7-------7-----------|--------4----5--7--------|--------4----5--7-------|
A|-------------------3--5--|--L--5-------------------|-----5------------------|
E|--5-----5-------5--------|-------------------------|------------------------|


G|-------------------------|----------------------5--|------------------------|
D|-----5----------5-----5--|----------------5--------|------------------------|
A|-------------------------|-------------------------|--3---------3--3-----3--|
E|--3-----3----3-----------|--3--3-------3-----------|------------------------|


G|------------------------|------------------------|-------------------------|
D|------------------------|--5--5------------------|-------------------------|
A|--3---------------------|------------------------|--5--5--5----5--5--------|
E|------------0--1--2--3--|--------3-------3-------|----------------------3--|


G|------------------------|-------------------------||
D|------------------------|-----5--5----5--5--------||
A|------------------------|-------------------------||
E|--3----3----3--3-----3--|----------------------0--||



G|-----------------------------------------------|-------------------------|
D|-----------------------------------------------|--------4-------4--------|
A|------------------------------2----3--5-----5--|--L--5-------5-----5-----|
E|--3--------------------------------------------|----------------------3--|


G|-------------------------|-------------------------|------------------------|
D|-------------------------|-------------------------|------------------------|
A|--------2----3--4--5-----|--------2----3--4--5-----|--------2----3--4----5--|
E|--L--3----------------3--|--L--3----------------3--|--L--3------------------|


G|--------------------------|-----------------------|-------------------------|
D|--------4-----4--5--4-----|-----------------------|----------------5--5--5--|
A|--L--5-----5-----------5--|-------2----3--4--5----|-----2----3--L-----------|
E|--------------------------|--3--------------------|--3----------------------|


G|------------------------|------------------------|------------------------|
D|------------------------|--------4-------4-------|------------------------|
A|-------2----3--4--4--5--|--L--5-------5-------5--|-------2----3--4--5-----|
E|--3---------------------|------------------------|--3------------------3--|


G|-------------------------|------------------------|--------------------------|
D|-------------------------|--5---------------------|--------4-----4--4--------|
A|--------2----3--4--5-----|--------2----3--4----5--|--5--5-----5--------5\----|
E|--3--3----------------3--|-----3------------------|--------------------------|


G|------------------------|-----------------------||
D|------------------------|-----------------------||
A|-----2------3--4--4--5--|-----------------------||
E|--3---------------------|-----0--2--3--L--------||



Leave your comments about this lesson