Santana

Smooth

Santana Bass Tab and Video Lesson

Level: Intermediate

Genre:Rock

Type of instrument:4 String Bass

NOTES

How to play Smooth by Santana in Bass Guitar.

G|----------------------------|-----------------------|
D|----------------------------|--7--------------------|
A|----------------------------|--------------8-----7--|
E|----------------------------|-----------------------|


G|------------------------|-----------------------|----------9--L--9--------|
D|------------------------|--7--------------------|-------------------9-----|
A|--L---------------7--7--|--------------8-----7--|--L-------------------7--|
E|----------7--L----------|-----------------------|-------------------------|


G|-----------------------|----------9--L----------|------------------------|
D|--7--------------------|------------------------|--7------7--------------|
A|--------------8-----7--|--L---------------x--7--|---------------8-----7--|
E|-----------------------|------------------------|------------------------|


G|------------------------||
D|------------------------||
A|--L----L\---------------||
E|-------------0----3-----||



G|-----------------------------------------|----------9--L----------|
D|-----------------------------------------|------------------------|
A|--------------------------------8-----7--|--L------------------7--|
E|--5\-------------------------------------|------------------------|


G|-----------------------|----------9--L---------|--7---------------------|
D|--7--------------------|-----------------------|--------------10-----9--|
A|--------------8-----7--|--L--------------------|------------------------|
E|-----------------------|-----------------------|------------------------|


G|-----------------------|------------------------|-------------------------||
D|--L-------6--L---------|--7------5--------------|-------------------------||
A|--------------------7--|---------------8-----7--|--L----------------------||
E|-----------------------|------------------------|----------0--0-----0-----||



Chorus - 1st part

G|----------------------------------------------------|
D|--7-------------------------------------------------|
A|-------------------------------------0-----8-----7--|
E|----------------------------------------------------|


G|------------------------|------------------------|-------------------------|
D|------------------------|--7------x--------------|-------------------------|
A|--7---------------7--7--|------------0--8-----7--|--L----x-----------7--7--|
E|----------7--7----------|------------------------|----------7--7-----------|


G|-------------------------|------------------------|--------------------------|
D|--7----------------------|------------------------|--------------------------|
A|----------0--0--8-----7--|--L----x----------7\----|--5-----5--0--3-----3--2--|
E|-------------------------|----------7--7----------|--------------------------|


G|------------------------|---------------------------|--------------------------|
D|------------------------|---------------------------|--------------------------|
A|--L----0----------------|------------------5--6--7--|--------------------------|
E|----------3--L----3-----|--2--2--2/--7--L-----------|-----0--0--0--0--0--0--0--|



Chorus - 2nd part

G|--------------------------------------------------------|
D|--------------------------------------------------------|
A|----------------------------------------------8-----5-6-|
E|--5----------------------------------3--5---------------|


G|--------------------------|---------------------------|
D|--------------------------|---------------------------|
A|--7--7--5--7--------------|-----------------8-----5-6-|
E|-----------------0--3--0--|--5--5--3--5---------------|


G|--------------------------|---------------------------|------------------------|
D|--------------------------|---------------------------|------------------------|
A|--7--7--5--6--7-----------|-----------------8-----5-6-|--7--7--5--7-------7----|
E|-----------------0--3--0--|--5--5--3--5---------------|--------------0---------|


G|-------------------------|----------------------|-------------------------|
D|-------------------------|----------------------|--7----7--5--------------|
A|--5-------------5-----7--|--7/------------------|----------------8-----7--|
E|-------------------------|----------------------|-------------------------|


G|-------------------------|-------------------------|
D|----------------------5--|--7----7--5--------------|
A|--L----------5--6--7-----|----------------8-----7--|
E|----------7--------------|-------------------------|


G|---------------------------||
D|---------------------------||
A|--L\-----------------------||
E|------0--0--0--3-----4-----||



G|-----------------------------------------|----------9--L----------|
D|--7--------------------------------------|------------------------|
A|--------------------------------8-----7--|--L---------------x--7--|
E|-----------------------------------------|------------------------|


G|-----------------------|----------9--L------x--|--7---------------------|
D|--7--------------------|-----------------------|--------------10-----9--|
A|--------------8-----7--|--L--------------------|------------------------|
E|-----------------------|-----------------------|------------------------|


G|------------------------|-------------------------|-------------------------||
D|--L-------6--L-------6--|--7----7--5--------------|-------------------------||
A|------------------7-----|----------------8-----7--|--L----------------------||
E|------------------------|-------------------------|----------0--0--0--0-----||



Leave your comments about this lesson