Skid Row

18 and Life

18 and Life by Skid Row Bass Tab and Video Lesson

92 BPM 92 BPM

Level: Intermediate

Genre:Heavy Metal

Instrument:4 String Bass

NOTES

Learn how to play 18 and Life by Skid Row in Bass Guitar.

G|------------------------------|---------------------|-----------------------|
D|------------------------------|---------------------|-----------------------|
A|--4-------------------L--4s-6-|--4------------L--2--|--4------------4s---11-|
E|------------------------------|---------------------|-----------------------|


G|-----------------------------|------------------------------|
D|-----------------------------|--11------11---L---L\---------|
A|--12-------Ls-13-14----11----|-------------------------4h-6-|
E|-----------------------------|------------------------------|


G|-------------------------|--------------------|---------------------||
D|-------------------------|--------------------|---------------------||
A|--4------4--L--2s--4--6--|--4------------4----|--0--------2---------||
E|-------------------------|--------------------|----------------4----||



G|--------------------------------|------------------------|
D|--------------------------------|------------------------|
A|--4---------------------L--4s-6-|--4--------L--2s--4--6--|
E|--------------------------------|------------------------|


G|-------------------------|----------------------|-----------------------|
D|-------------------------|----------------------|-----------------------|
A|--4------4--L-----12\----|--0------0--2---------|--4------------L--4s-6-|
E|---------------0---------|-----------------4----|-----------------------|


G|------------------------|------------------------|----------------------|
D|------------------------|------------------------|----------------------|
A|--4--------L--2s--4--6--|--4--------L-----12\----|--0------0--2---------|
E|------------------------|--------------0---------|-----------------4----|


G|-------------------------|--------------------------|
D|-------------------------|--------------------------|
A|-------------------------|--------------------------|
E|--5--5--5--5--5--5--4----|--2--2--2--2--2--2--0-2---|


G|---------------------------|--------------------------||
D|---------------------------|--------------------------||
A|---------------------------|--0---0-0--0--2--0--2--3--||
E|--4--4--4--4--4--4--4--0-4-|--------------------------||



G|-----------------------------------------|-----------------------|
D|-----------------------------------------|-----------------------|
A|--4--------------------4--2--0----0h--2--|------------2----2--3--|
E|-----------------------------------------|--0------4-------------|


G|-------------------------|-------------------------|-------------------------|
D|-------------------------|-------------------------|-------------------------|
A|--4----4--2--0----0h--2--|-------------2--0--2--3--|--4----4--2--0----0h--2--|
E|-------------------------|--0----0--4--------------|-------------------------|


G|------------------------|-------------------------|---------------------------|
D|------------------------|-------------------------|---------------------------|
A|-------------2----2--3--|--4----4--2--0----0h--2--|---------------2--0--2--3--|
E|--0----0--4-------------|-------------------------|--0--0-0-0--4--------------|


G|--------------------------|-------------------------|-------------------------|
D|--------------------------|-------------------------|-------------------------|
A|--4-------4--4-------4h-6-|--4-------4--4--0--2--2--|--4-------4--4-----9\----|
E|--------------------------|-------------------------|----------------0--------|


G|----------------------||
D|----------------------||
A|--0------0--2---------||
E|-----------------4----||



G|-------------------------------------------|-------------------------|
D|-------------------------------------------|-------------------------|
A|--4------------------------4--4-------4h-6-|--4-------4--4--0--2--2--|
E|-------------------------------------------|-------------------------|


G|-------------------------|----------------------|------------------------|
D|-------------------------|----------------------|------------------------|
A|--4-------4--4-----9\----|--0------0--2---------|--4-------4--4-------4--|
E|----------------0--------|-----------------4----|------------------------|


G|-------------------------|--------------------------|----------------------|
D|-------------------------|--------------------------|----------------------|
A|--4--4-----4--4--0--2----|--4--4-----4--4-----9\----|--0------0--2---------|
E|-------------------------|-----------------0--------|-----------------4----|


G|--------------------------|--------------------------|
D|--------------------------|--------------------------|
A|--------------------------|--------------------------|
E|--5--5--5--5--5--5--5--5--|--2--2--2--2--2--2--0-2---|


G|---------------------------|--------------------------||
D|---------------------------|--------------------------||
A|---------------------------|--0---0-0--0--2--0--2--3--||
E|--4--4--4--4--4--4--4--0-4-|--------------------------||



G|------------------------------------------------|
D|------------------------------------------------|
A|--4--------------------4-4-4--4-4-4--4-4-4--4-0-|
E|------------------------------------------------|


G|---------6------6---------------|------------------------|
D|----6--6---6--6---6--6-6-4s-2---|------------------------|
A|--4---------------------------4-|------------------------|
E|--------------------------------|--0----0---0-0--0----4--|


G|---------------------------|-------------------------|
D|---------------------------|-------------------------|
A|--2----2-----2--2--2-0-----|---------------------0-1-|
E|-----------4-----------4-4-|--5----5---4-5--5--------|


G|-------------------------------||
D|-------------------------------||
A|--2---0-2--0-2-2--0-2-2s-3-0-3-||
E|-------------------------------||



Guitar Solo

G|-----------------------------------------|-----------------------|
D|-----------------------------------------|-----------------------|
A|--4-------------------------2--0------2--|-------------2------3--|
E|-----------------------------------------|--0----0--4------------|


G|----------------------|-------------------------|----------------------|
D|----------------------|-------------------------|----------------------|
A|--4------2--0------2--|-------------2--0--2--3--|--4------2--0------2--|
E|----------------------|--0----0--4--------------|----------------------|


G|-----------------------|----------------------|---------------------------||
D|-----------------------|----------------------|---------------------------||
A|-------------2------3--|--4------2--0------2--|---------------2--0--2--3--||
E|--0----0--4------------|----------------------|--0--0-0-0--4--------------||



G|---------------------------------------|------------------------|
D|---------------------------------------|------------------------|
A|--4-------------------4--2--0----0--2--|-------------2----2--3--|
E|---------------------------------------|--0----0--4-------------|


G|------------------------|-------------------------|------------------------|
D|------------------------|-------------------------|------------------------|
A|--4----4--2--0----0--2--|-------------2--0--2--3--|--4----4--2--0----0--2--|
E|------------------------|--0----0--4--------------|------------------------|


G|------------------------|------------------------|-------------------------|
D|------------------------|------------------------|-------------------------|
A|-------------2----2--3--|--4----4--2--0----0--2--|-------------2--0--2--3--|
E|--0----0--4-------------|------------------------|--0----0--4--------------|


G|------------6----------||
D|---------6-----6-------||
A|--4---------------4----||
E|-----------------------||



Leave your comments about this lesson