Steppenwolf

Born to Be Wild

Steppenwolf Bass Tab and Video Lesson

Level: Intermediate

Genre:Hard Rock

Type of instrument:4 String Bass

NOTES

How to play Born to Be Wild by Steppenwolf in Bass Guitar.

G|----------------------------------------|------------------------| 
D|----------------------------------------|------------------------| 
A|----------------------------------------|------------------5-----| 
E|----------------------------------------|--------------/7--------| 

G|-------------------|------------------------|-------------------| 
D|-------------------|------------------------|-------------------| 
A|--7----------------|--L--------L------5-----|--7----------------| 
E|-------------------|--------------/7--------|-------------------| 

G|------------------------|------------------/9--|--L--7-----9--7------------| 
D|------------------------|----------------------|--------9------------------| 
A|--L--------L------5-----|--7-------------------|------------------------5--| 
E|--------------/7--------|----------------------|--------------------7s-----| 



G|----------------------------------------------------------| 
D|----------------------------------------------------------| 
A|--7----------------------------------------7--------5--7--| 
E|-------------------------------------------------7--------| 

G|--------------------------|-------------------------|--------------------------| 
D|-----------------------5--|-------------------------|--------------------------| 
A|-----7-----7--------5-----|--7-------7--------5--7--|-----7-----7--5-----------| 
E|-----------------7--------|----------------7--------|-----------------7--5--3--| 

G|-------------------------|--------------------------|-------------------------| 
D|-------------------------|-----------------------5--|-------------------------| 
A|--7-------7--------5--7--|-----7-----7--------5-----|--7-------7--------5--7--| 
E|----------------7--------|-----------------7--------|----------------7--------| 

G|--------------------------| 
D|--------------------------| 
A|-----7-----7--L--5--------| 
E|--------------------7--5--| 



G|------------------------------------------------------------------| 
D|------------------------------------------------------------------| 
A|------------------------------------------------------------------| 
E|--3------------------------------------------3-----3--5--5-----5--| 

G|--------9--9--7-----------|--------------------------| 
D|-----9-----------9--------|--------------------------| 
A|--7-----------------7--7--|--------------------------| 
E|--------------------------|--3--3-----3--5--5-----5--| 

G|--------9--9--7-----------|--------------------------| 
D|-----9-----------9--------|--------------------------| 
A|--7-----------------7--7--|--------------------------| 
E|--------------------------|--3--3-----3--5--5-----5--| 

G|--------9--9--7-----------|--------------------------|-----------------------| 
D|-----9-----------9--------|--------------------------|-----------------------| 
A|--7-----------------7--7--|--------------------------|-----------------------| 
E|--------------------------|--3--3-----3--5--5--5--5--|--0--------L--7-----x--| 



Pre-Chorus Slow

G|------------------------------------------------------------------| 
D|------------------------------------------------------------------| 
A|------------------------------------------------------------------| 
E|--3------------------------------------------3-----3--5--5-----5--| 

G|--------9--9--7-----------|--------------------------| 
D|-----9-----------9--------|--------------------------| 
A|--7-----------------7--7--|--------------------------| 
E|--------------------------|--3--3-----3--5--5-----5--| 

G|--------9--9--7-----------|--------------------------| 
D|-----9-----------9--------|--------------------------| 
A|--7-----------------7--7--|--------------------------| 
E|--------------------------|--3--3-----3--5--5-----5--| 

G|--------9--9--7-----------|--------------------------|-----------------------| 
D|-----9-----------9--------|--------------------------|-----------------------| 
A|--7-----------------7--7--|--------------------------|-----------------------| 
E|--------------------------|--3--3-----3--5--5--5--5--|--0--------L--7-----x--| 



G|--------------------------------------------------------------| 
D|--------------------------------------------------------------| 
A|--------------------------------------------------------------| 
E|--0--------------------------------------0--0--0--0--0--0--0--| 

G|--------------------------|--------------------------| 
D|--------------------------|--------------------------| 
A|--------------------------|--------------------------| 
E|--0--0--0--0--0--0--0--0--|--0--0--0--0--0--0--0--0--| 

G|--------------------------|--------------------------| 
D|--------------------------|--------------------------| 
A|--------------------------|--------------------------| 
E|--3--3--3--3--3--3--3--3--|--3--3--3--3--3--3--3--3--| 

G|--------------------------|--------------------------|-------------------------| 
D|--------------------------|--------------------------|-------------------------| 
A|--------------------------|--------------------------|-------------------------| 
E|--5--5--5--5--5--5--5--5--|--3--3--3--3--3--3--3--3--|--0----0--0--L--0--0--0--| 

G|--------------------------|-------------------|-------------------| 
D|--------------------------|-------------------|-------------------| 
A|--------------------7--6--|--7----------------|--5----------------| 
E|--0--0--0--0--L--0--------|-------------------|-------------------| 

G|-------------------|-------------------|-------------------|-------------------| 
D|-------------------|-------------------|-------------------|-------------------| 
A|--7----------------|--5----------------|--7----------------|--5----------------| 
E|-------------------|-------------------|-------------------|-------------------| 

G|-------------------|-------------------| 
D|-------------------|-------------------| 
A|--7----------------|--5----------------| 
E|-------------------|-------------------| 



G|---------------------------------------------------------| 
D|---------------------------------------------------------| 
A|--7---------------------------------------7--5-----5--7--| 
E|------------------------------------------------7--------| 

G|--------------------------|-------------------------|--------------------------| 
D|-----------------------5--|-------------------------|--------------------------| 
A|-----7-----7--5-----5-----|--7-------7--5-----5--7--|-----7-----7--5-----------| 
E|-----------------7--------|----------------7--------|-----------------7--5--3--| 

G|-------------------------|--------------------------|-------------------------| 
D|-------------------------|-----------------------5--|-------------------------| 
A|--7-------7--5-----5--7--|-----7-----7--5-----5-----|--7-------7--5-----5--7--| 
E|----------------7--------|-----------------7--------|----------------7--------| 

G|--------------------------|-------------------------| 
D|--------------------------|-------------------------| 
A|-----7-----7--5-----------|--7-------7--5-----5--7--| 
E|-----------------7--5--3--|----------------7--------| 

G|----------------------------|----------------------------| 
D|----------------------------|----------------------------| 
A|-----7-----7--7----------5--|--7--------7--7--7-------5--| 
E|--------------------5S-7----|--------------------5S-7----| 

G|-----------------------7--|--9--9-----9--9-------7-----| 
D|--------------------9-----|-----------------7S-9-------| 
A|--7--------7--7--7--------|----------------------------| 
E|--------------------------|----------------------------| 

G|--9--9-----9--9-------7-----|--9--9-----9--9-------7-----| 
D|-----------------7S-9-------|-----------------7S-9-------| 
A|----------------------------|----------------------------| 
E|----------------------------|----------------------------| 

G|--9--9-----9--9-------7-----|--9--9--9--9--9--9--9--9--| 
D|-----------------7S-9-------|--------------------------| 
A|----------------------------|--------------------------| 
E|----------------------------|--------------------------| 

G|--9--9--9--9--9--9--9--9--|--9--9--9--9--9--9--9--9--| 
D|--------------------------|--------------------------| 
A|--------------------------|--------------------------| 
E|--------------------------|--------------------------| 

G|--9--9--9--9--9--9--9--9--| 
D|--------------------------| 
A|--------------------------| 
E|--------------------------| 



G|----------------------------------------|-------------------7-----| 
D|----------------------------------------|--------------7S-9----9--| 
A|--7-------------------------------------|--5--------L-------------| 
E|----------------------------------------|-------------------------| 

G|--/9-------9-------7--L-----|----------7-----9--7--------| 
D|--------------7S-9-------9--|--L--7S-9----9--------9--7--| 
A|----------------------------|----------------------------| 
E|----------------------------|----------------------------| 

G|-------------------------|--------------------------|--9------9-------7--L-----| 
D|-------------------------|--------------------------|------------7S-9-------9--| 
A|--7----7--7--7--7--7--7--|--7--7--7--7--------------|--------------------------| 
E|-------------------------|--------------0--0--7--7--|--------------------------| 

G|-----9--7------------------|--------------------------| 
D|--L--------9--7--9--7------|--------------------------| 
A|-----------------------10--|--7--7--7--7--7--7--7--7--| 
E|---------------------------|--------------------------| 

G|--------------------------|--------------------------| 
D|--------------------------|--------------------------| 
A|--7--7--------------5--6--|--7--7--7--7--7--7--7--7--| 
E|--------0--5--L--7--------|--------------------------| 

G|--------------------------|--------------------------| 
D|--------------------------|--------------------------| 
A|--7-----------5-----5--6--|--7--7--7--7--7--7--7--7--| 
E|-----0--5--7-----7--------|--------------------------| 

G|--------------------------|--------------------------| 
D|--------------------------|--------------------------| 
A|--7--7--7--7--7--------5--|--7--7--7--7--7--7--7--7--| 
E|-----------------5--7-----|--------------------------| 

G|--------------------------| 
D|--------------------------| 
A|--7--7--7--7--7--7--7--7--| 
E|--------------------------| 



Leave your comments about this lesson