Stevie Wonder

My Cherie Amour

My Cherie Amour by Stevie Wonder Bass Tab and Video Lesson

100 BPM 100 BPM

Level: Intermediate

Genre:R&B

Instrument:4 String Bass

NOTES

Learn how to play My Cherie Amour by Stevie Wonder in Bass Guitar.

G|---------------------------------------|---------------------|
D|---------------------------------------|---------------------|
A|---------------------------------------|--2--------2----2----|
E|--2-----------------------2--L----2----|---------------------|


G|-----------------------|----------------------||--------------------||
D|-----------------------|---------------------*||--------------------||
A|--2------2--L--2--2----|--4--------4----4----*||--4-----------------||
E|-----------------------|----------------------||-----------4--------||



Verse 1 and 2

G|--------------------------------------------------|-------------------------|
D|--------------------------------------------------|---------4--L------------|
A|--4-------------------------------4--L------4-----|---------------------0-1-|
E|------------------------------------------4---4-3-|--2--------------2-4-----|


G|------------------------|-----------------------|---------------------------|
D|------------------------|-----------------------|---------------------------|
A|--2------2--L------0-1--|--------------------3--|--4------4--L------4-------|
E|-----------------4------|--4------4--L----4-----|---------------4-4---4-3---|


G|------------------------|------------------------|-----------------------||
D|------------4--------4--|------------------------|-----------------------||
A|------------------------|--2------2--L-----------|-----------------4-----||
E|--2------2-----2--------|-----------------4-5-6--|--4------4--L-------3--||



G|-----------------------------------------|-----------------------|
D|---------------------------4--L----------|-----------------------|
A|-----------------------------------------|--------------------1--|
E|--2--------------------------------2--3--|--4------4--L----------|


G|---------4--L----------|---------3------------|-------3------------------|
D|-----------------------|-----------------0----|--1-------1--L----1-------|
A|--2--------------2--0--|--1---------1---------|--------------------1-0---|
E|-----------------------|----------------------|------------------------3-|


G|-----------------------|-----------------------|-----------------------||
D|-----------------------|-----------------------|-----------------------||
A|--------------------3--|--4------4--L----4-----|--4--------------------||
E|--4------4--L----4-----|--------------------4--|--------------------4--||



G|----------------------------------------|---------------------|
D|----------------------------------------|---------------------|
A|----------------------------------------|--2--------2----2----|
E|--2------------------------2--L----2----|---------------------|


G|-----------------------|----------------------||---------------------||
D|-----------------------|---------------------*||---------------------||
A|--2------2--L--2--2----|--4--------4----4----*||--4--------0----0----||
E|-----------------------|----------------------||---------------------||



G|--------------------------------------------|-------------------------|
D|--0-------------------------0--L------0-----|-------------------0-----|
A|------------------------------------0---0---|---------------------2---|
E|------------------------------------------0-|--3------3--L----------3-|


G|-------------------------|-----------------------|----------------------|
D|-------------------------|-----------------------|--0------0--L---------|
A|--3------3--L----0-1-2---|--0------0--L----0--4--|-----------------0----|
E|-------------------------|-----------------------|----------------------|


G|--0--------------0-------|-------------------------|-----------------------||
D|-------------------0-----|-------------------------|--------------------0--||
A|---------------------2---|--3------3--L----0-1-2---|--0------0--L----L-----||
E|---------3--L----------3-|-------------------------|-----------------------||



G|--0-------------------------------------|------------------------|
D|----------------------------------------|------------------------|
A|----------------------------------------|--0------0--L-----0--2--|
E|--------------------------3--L----3--4--|---------------0--------|


G|-----------------------|---------4--L----------|-----------------------|
D|-----------------------|-----------------------|---------2--L----------|
A|--3------3--L-------3--|--2--------------2-----|-----------------------|
E|-----------------3-----|--------------------2--|--0--------------0--4--|


G|-----------------2-----|-----------------------|---------------------|
D|-----------------------|--0------0--L----0-----|--0--------0----0----|
A|--0------0--L-------0--|--------------------0--|---------------------|
E|-----------------------|-----------------------|---------------------|


G|---0------0--L----0----|---------------------|-----------------------|
D|*----------------------|---------------------|-----------------------|
A|*----------------------|--3--------3----3----|--3------3--L--3--3----|
E|-----------------------|---------------------|-----------------------|


G|----------------------||
D|--0--------0----0----*||
A|---------------------*||
E|----------------------||



Leave your comments about this lesson