Sting

Englishman in New York

Englishman in New York by Sting Bass Tab and Video Lesson

Level: Intermediate

Genre:R&B

Instrument:4 String Bass

NOTES

How to play Englishman in New York by Sting in Bass Guitar.

G|------------------------------------|---------------------|
D|------------------------------------|---------------------|
A|---------------------------0--------|--2--------2----0----|
E|--0---------------------------------|---------------------|

G|--------------------|----------------------|--------------------|
D|--------------------|----------------------|--------------------|
A|-----------0--------|--2--------2----0---2-|-----------0--------|
E|--0-----------------|----------------------|--0-----------------|

G|-------------------------|--------------------|-----------------------|
D|-------------------------|--------------------|---------------4-----2-|
A|--2--------0-2--4--5---2-|-----------0--------|--2--------2-----0-----|
E|-------------------------|--0-----------------|-----------------------|



Verse 1 and 2

G|---------------------------------------------|---------------------|
D|---------------------------------------------|---------------------|
A|------------------------------------0--------|--2--------2----0----|
E|--0------------------------------------------|---------------------|

G|--------------------|-----------------------|--------------------|
D|--------------------|---------------4-----2-|--------------------|
A|-----------0--------|--2--------L-----0-----|-----------0--------|
E|--0-----------------|-----------------------|--0-----------------|

G|----------------------|--------------------|-------------------------|
D|----------------------|--------------------|-------------------------|
A|--2---------2----0----|-----------0--------|--2--------0-2--4--5--2--|
E|----------------------|--0-----------------|-------------------------|

G|----------------------|------------------------|----------------------|
D|----------------------|------------------------|----------------------|
A|------------0----0----|--2----L---0-2--4--5----|------------0----0----|
E|--0----0--------------|------------------------|--0----0--------------|

G|-----------------------|---------------------|------------------------|
D|-----------------------|---------------------|-----------4----------2-|
A|--2--------0-2----0----|-----------0----0----|--2----L-----2----0-----|
E|-----------------------|--0------------------|------------------------|

G|----------------------|-----------------------|
D|----------------------|---------------------2-|
A|------------0----0----|--2----2----2----0-----|
E|--0----0--------------|-----------------------|



G|---------------------------------------------|------------------------|
D|---------------------------------------------|----------------4-------|
A|-----------------------------------0----0----|--2----2----2-----0--2--|
E|--0---------------------------0--------------|------------------------|

G|----------------------|-------------------------|----------------------|
D|----------------------|-------------------------|----------------------|
A|------------0----0----|--2----2---0-2--4--5--0--|------------0----0----|
E|--0----0--------------|-------------------------|--0----0--------------|

G|------------------------|----------------------|------------------------|
D|------------------------|----------------------|------------------------|
A|--2----2----2--4--5--0--|------------0----0----|--2----2----2-----0--2--|
E|------------------------|--0----0--------------|----------------2-------|



G|---------------------------------------------|------------------------|
D|---------------------------------------------|------------------------|
A|-----------------------------------0----0----|--2----2----2--4--5-----|
E|--0---------------------------0--------------|---------------------2--|

G|----------------------|-------------------------|----------------------|
D|----------------------|-------------------------|----------------------|
A|------------0----0----|--2----2---0-2--4--5-----|------------0----0----|
E|--0----0--------------|----------------------2--|--0----0--------------|

G|------------------------|----------------------|----------------------|
D|------------------------|----------------------|----------------------|
A|--2----2----2--4--5-----|------------0----0----|--2----2----2----4----|
E|---------------------2--|--0----0--------------|----------------------|



G|---------------------------------------------|-----------------------|
D|---------------------------------------------|-----------------------|
A|-----------------------------------0----0----|--2----2----2----2--4--|
E|--0---------------------------0--------------|-----------------------|

G|----------------------|------------------------|----------------------|
D|----------------------|------------------------|----------------------|
A|------------0----0----|--2----2----2--4--5--0--|------------0----0----|
E|--0----0--------------|------------------------|--0----0--------------|

G|------------------------|----------------------|-------------------------|
D|----------------------2-|----------------------|-----------4-----4-------|
A|--2----2---0-2----0-----|------------0----0----|--2----2-----2-----0--2--|
E|------------------------|--0----0--------------|-------------------------|



Verse 4 and 5

G|------------------------------------------|----------------------|
D|------------------------------------------|----------------------|
A|------------------------------------------|------------0----0----|
E|---------------------------------------2--|--0----0--------------|

G|------------------------|----------------------|-----------------------|
D|---------------4--------|----------------------|-----------------------|
A|--2----2----2-----0---2-|------------0----0----|--2----2----2----0---2-|
E|------------------------|--0----0--------------|-----------------------|

G|----------------------|-----------------------|----------------------|
D|----------------------|-----------------------|----------------------|
A|------------0----0----|--2----2----2----0---2-|------------0----0----|
E|--0----0--------------|-----------------------|--0----0--------------|

G|------------------------|----------------------|------------------------|
D|-----------4------------|----------------------|------------------------|
A|--2----2-----2----0---2-|------------0----0----|--2----2----2--4--5-----|
E|------------------------|--0----0--------------|---------------------2--|

G|----------------------|-------------------------|-----------------------|
D|----------------------|-----------4-------------|---------------------4-|
A|------------0----0----|--2----2-----2--4--5-----|------------0----0-----|
E|--0----0--------------|----------------------2--|--0----0---------------|

G|-------------------------|----------------------|------------------------|
D|-----------4----4--------|----------------------|------------------------|
A|--2----2-----2-----0--2--|------------0----0----|--2----2----2--4--5-----|
E|-------------------------|--0----0--------------|---------------------2--|

G|----------------------|-----------------------|----------------------|
D|----------------------|-----------------------|----------------------|
A|------------0----0----|--2----2----2----2-----|------------0----0----|
E|--0----0--------------|--------------------2--|--0----0--------------|

G|------------------------|
D|------------------------|
A|--2----2----2--4--5-----|
E|---------------------2--|



G|-------------------------------------------|-------2---------2----|
D|---------------------------------4---------|----------------------|
A|--5-------------------------5---------5----|--0---------0---------|
E|-------------------------------------------|----------------------|

G|-------4---------4----|----------------------|----------------------|
D|----------------------|-------4---------4----|-------5---------5----|
A|--2---------2---------|----------------------|----------------------|
E|----------------------|--2---------2---------|--3---------3---------|

G|-------2---------2----|-------3---------3----|-------4--------------|
D|----------------------|----------------------|----------------------|
A|--0---------0---------|--1---------1---------|--2---------2---------|
E|----------------------|----------------------|----------------------|



G|---------------------------------------------|-------------2----3----|
D|--2------------------------------------------|-------2---x-----------|
A|---------------------------------------------|--0--------------------|
E|------------------------------0----2----3----|-----------------------|

G|--4----6----7----2----|--4----2----0---------|----------------------|
D|----------------------|-----------------4----|--2----0--------------|
A|----------------------|----------------------|------------4----2----|
E|----------------------|----------------------|----------------------|

G|----------------------|-----------------------|-------3----4----2----|
D|----------------------|------------------3----|--4-------------------|
A|--0--------------1----|--2---x-4----5---------|----------------------|
E|-------0----2---------|-----------------------|----------------------|

G|--0-------------------|------------2----0----|--0-------------------|
D|-------4----2----0----|-------2--------------|-------3----4----2----|
A|----------------------|--4-------------------|----------------------|
E|----------------------|----------------------|----------------------|

G|----------------------|-----------------1----|--2-------------------|
D|--0-------------------|------------2---------|-------2--------------|
A|-------4----2---------|-------2--------------|------------0----1----|
E|-----------------2----|--0-------------------|----------------------|

G|----------------------|--------------------|
D|-------3----4---------|--------------------|
A|--2--------------1----|--2-----------------|
E|----------------------|--------------------|



Sax Solo Slow

G|---------------------------------------------|-------------2----3----|
D|--2------------------------------------------|-------2---x-----------|
A|---------------------------------------------|--0--------------------|
E|------------------------------0----2----3----|-----------------------|

G|--4----6----7----2----|--4----2----0---------|----------------------|
D|----------------------|-----------------4----|--2----0--------------|
A|----------------------|----------------------|------------4----2----|
E|----------------------|----------------------|----------------------|

G|----------------------|-----------------------|-------3----4----2----|
D|----------------------|------------------3----|--4-------------------|
A|--0--------------1----|--2---x-4----5---------|----------------------|
E|-------0----2---------|-----------------------|----------------------|

G|--0-------------------|------------2----0----|--0-------------------|
D|-------4----2----0----|-------2--------------|-------3----4----2----|
A|----------------------|--4-------------------|----------------------|
E|----------------------|----------------------|----------------------|

G|----------------------|-----------------1----|--2-------------------|
D|--0-------------------|------------2---------|-------2--------------|
A|-------4----2---------|-------2--------------|------------0----1----|
E|-----------------2----|--0-------------------|----------------------|

G|----------------------|--------------------|
D|-------3----4---------|--------------------|
A|--2--------------1----|--2-----------------|
E|----------------------|--------------------|



G|------------------------------------------|-------------------------|
D|------------------------------------------|-----------------4-------|
A|--------------------------------0----0----|--2----2---0-2-----0--2--|
E|--0------------------------0--------------|-------------------------|

G|----------------------|-------------------------|----------------------|
D|----------------------|-------------------------|----------------------|
A|------------0----0----|--2----2----2--4--5------|------------0----0----|
E|--0----0--------------|-----------------------2-|--0----0--------------|

G|------------------------|--------------------|----------------------|
D|-----------4----------4-|--------------------|----------------------|
A|--2----L-----2----0-----|-----------0--------|--2--------2----0-----|
E|------------------------|--0-----------------|--------------------2-|

G|--------------------|----------------------|----------------------|
D|--------------------|----------------------|----------------------|
A|-----------0--------|--2--------2----0--2--|------------0----0----|
E|--0-----------------|----------------------|--0----0--------------|

G|------------------------|
D|------------------------|
A|--2----2----2--4--5-----|
E|---------------------2--|



Leave your comments about this lesson