The Beatles

Baby You Are a Rich Man

Baby You Are a Rich Man by The Beatles Bass Tab and Video Lesson

Level: Beginner

Genre:Rock

Instrument:4 String Bass

NOTES

How to play Baby You Are a Rich Man by The Beatles in Bass Guitar.

G|------------------------------|------------------------------|
D|--5---------------------------|------------------------------|
A|-----x-x-x--x-x-x--x-x-x--x-x-|--x--x-x-x--x-x-x--x-x-x--x-x-|
E|------------------------------|------------------------------|

G|-------------------------------|-----------------------------|
D|----------------5-5-5-5-5------|----------------5--x-x-5--5--|
A|--x--x-x-x--x-x-----------5\---|-----------------------------|
E|-------------------------------|--3--x-x-3--x-x--------------|

G|-------------------------------|----------------------------|
D|--5--x-x-5--x-x-5-5-5-5-5------|----------------------------|
A|--------------------------5\---|----------------------------|
E|-------------------------------|--3--x-x-3--x-x-3--3--3--3--|

G|----------------------------|------------------------------|
D|----------------------------|------------------------------|
A|----------------------------|------------------------------|
E|--3---3-3--3-3-3--3-3-3--3--|--x--x-x-x--x-x-x--x-x-3-3----|



G|----------------------------|----------------------------|
D|----------------------------|----------------------------|
A|----------------------------|----------------------------|
E|--3---3-3--3-3-3--3-3-3--3--|--3---3-3--3-3-3--3-3-3--3--|

G|----------------------------|----------------------------|
D|----------------------------|----------------------------|
A|----------------------------|----------------------------|
E|--3---3-3--3-3-3--3-3-3--3--|--3---3-3--3-3-3--3-3-3--3--|

G|----------------------------|--------------------------|-------------------|
D|----------------------------|--------------------------|-------------------|
A|----------------------------|--------------------------|--3----------------|
E|--3---3-3--3-3-3--3-3-3--3--|--1--1--1--1--3--3--3--3--|-------------------|

G|--------------------------|--------------------------|
D|--------------------------|--------------------------|
A|--------------------------|--------------------------|
E|--3---3-3---3-3---3-3---3-|--3---3-3--3--3--3--3--3--|

G|---------------------------|-------------------|
D|---------------------------|-------------------|
A|---------------------------|--3----------------|
E|--1--1--1--1--3--3--3--3-3-|-------------------|



G|-------------------|-------------------|--------------------------|
D|-------------------|-------------------|--------------------------|
A|-------------------|--3----------------|--------------------------|
E|--3----------------|-------------------|--3--3--3--3--3--3--3--3--|

G|--------------------------|--------------------------|
D|--------------------------|--------------------------|
A|--------------------------|--------------------------|
E|--3--3--3--3--3--3--3--3--|--3--3--3--3--3--3--3--3--|

G|--------------------------|-------------------|--------------------------|
D|--------------------------|-------------------|--------------------------|
A|--------------------------|--3----------------|--------------------------|
E|--1--1--1--1--3--3--3--3--|-------------------|--3---3-3---3-3---3-3---3-|

G|--------------------------|---------------------------|-------------------|
D|--------------------------|---------------------------|-------------------|
A|--------------------------|---------------------------|--3----------------|
E|--3---3-3--3--3--3--3--3--|--1--1--1--1--3--3--3--3-3-|-------------------|



G|--------------------------|--------------------------|
D|--------------------------|-----2--5--2-----2--5--2--|
A|-----2--5--2-----2--5--2--|--3-----------3-----------|
E|--3-----------3-----------|--------------------------|

G|--------------------------|--------------5--5--2-----|
D|--------------------------|-----2--5--2-----------5--|
A|-----2--5--2-----2--5--2--|--3-----------------------|
E|--3-----------3-----------|--------------------------|

G|---------------------------|----------------------------|
D|---------------------------|----------------------------|
A|--1--1-1-1--1--2--2--2--2--|--3--3--3--3--2-3-3-3-3--3--|
E|---------------------------|----------------------------|

G|--------------------------|-----------------------|--------------------------|
D|--------------------------|-----------------------|--------------------------|
A|--------------------------|--3--------3--3--2-----|-----2--5--2-----2--5--2--|
E|--3--3--3--3--3--3--3--3--|--------------------5--|--3-----------3-----------|

G|--------------------------|--------------------------|-------------------|
D|-----2--5--2-----2--5--2--|--------------------------|-------------------|
A|--3-----------3-----------|-----2--5--2-----2--5--2--|--3----------------|
E|--------------------------|--3-----------3-----------|-------------------|



G|-------------------|-------------------|--------------------------|
D|-------------------|-------------------|--------------------------|
A|-------------------|-------------------|--------------------------|
E|--3----------------|--3----------------|--3--3--3--3--3--3--3--3--|

G|--------------------------|--------------------------|
D|--------------------------|--------------------------|
A|--------------------------|--------------------------|
E|--3--3--3--3--3--3--3--3--|--3--3--3--3--3--3--3--3--|

G|--------------------------|-------------------|--------------------------|
D|--------------------------|-------------------|--------------------------|
A|--------------------------|--3----------------|--------------------------|
E|--1--1--1--1--3--3--3--3--|-------------------|--3---3-3---3-3---3-3---3-|

G|--------------------------|---------------------------|-------------------|
D|--------------------------|---------------------------|-------------------|
A|--------------------------|---------------------------|--3----------------|
E|--3---3-3--3--3--3--3--3--|--1--1--1--1--3--3--3--3-3-|-------------------|



Final Chorus

G|--------------------------|--------0-----------0-----|
D|--------0-----------0-----|-----2-----2-----2-----2--|
A|-----2-----2-----2-----2--|--3-----------3-----------|
E|--3-----------3-----------|--------------------------|

G|--------------------------|--------0-----5--5--2--0--|
D|--------0-----------0-----|-----2-----2--------------|
A|-----2-----2-----2-----2--|--3-----------------------|
E|--3-----------3-----------|--------------------------|

G|---------------------------|----------------------------|
D|---------------------------|----------------------------|
A|--1--1-1-1--1--2--2--2--2--|--3--3--3--3--2-3-3-3-3--3--|
E|---------------------------|----------------------------|

G|--------------------------|-----------------------|--------------------------|
D|--------------------------|-----------------------|--------0-----------0-----|
A|--------------------------|--3--------3--3--2--0--|-----2-----2-----2-----2--|
E|--3--3--3--3--3--3--3--3--|-----------------------|--3-----------3-----------|

G|--------0-----------0-----|--------------------------|-------------------------|
D|-----2-----2-----2-----2--|--------0-----------0-----|-------------------------|
A|--3-----------3-----------|-----2-----2-----2-----2--|--3--3--3----L--3--2--0--|
E|--------------------------|--3-----------3-----------|-------------------------|

G|--------------------------|--------0-----------0-----|
D|--------0-----------0-----|-----2-----2-----2-----2--|
A|-----2-----2-----2-----2--|--3-----------3-----------|
E|--3-----------3-----------|--------------------------|

G|--------------------------|--------------------------|
D|--------0-----------0-----|-----------------5--5--5--|
A|-----2-----2-----2-----2--|--3--3--3--3--3-----------|
E|--3-----------3-----------|--------------------------|

G|--------------------------|--------0-----------0-----|
D|--------0-----------0-----|-----2-----2-----2-----2--|
A|-----2-----2-----2-----2--|--3-----------3-----------|
E|--3-----------3-----------|--------------------------|

G|--------------------------|--------------------------|
D|--------0-----------0-----|-----------------5--5--5--|
A|-----2-----2-----2-----2--|--3--3--3--3--3-----------|
E|--3-----------3-----------|--------------------------|



Leave your comments about this lesson